999
Outputted By AR_CAD Ver.1.4.7
  0
SECTION
  2
HEADER
  9
$ACADVER
  1
AC1009
  9
$DWGCODEPAGE
  3
DOS932
  9
$EXTMIN
 10
0
 20
0
  9
$EXTMAX
 10
297
 20
210
  9
$INSBASE
 10
0.0
 20
0.0
 30
0.0
  9
$HANDLING
 70
     1
  9
$LTSCALE
 40
1
  0
ENDSEC
  0
SECTION
  2
TABLES
  0
TABLE
  2
LTYPE
 70
     11
  0
LTYPE
  2
BYBLOCK
 70
    64
 3

 72
    65
 73
    0
 40
    0
  0
LTYPE
  2
BYLAYER
 70
    64
 3

 72
    65
 73
    0
 40
    0
  0
LTYPE
  2
CONTINUOUS
 70
    64
 3
CONTINUOUS
 72
    65
 73
    0
 40
    0
  0
LTYPE
  2
DASHED
 70
    64
 3

 72
    65
 73
    2
 40
    3.5
 49
    2.91666666666667
 49
    -0.583333333333333
  0
LTYPE
  2
DOT
 70
    64
 3

 72
    65
 73
    2
 40
    0.5
 49
    0.25
 49
    -0.25
  0
LTYPE
  2
DASHDOT
 70
    64
 3

 72
    65
 73
    4
 40
    3.5
 49
    1.84210526315789
 49
    -0.552631578947368
 49
    0.552631578947368
 49
    -0.552631578947368
  0
LTYPE
  2
DIVIDE
 70
    64
 3

 72
    65
 73
    6
 40
    3.5
 49
    1.4
 49
    -0.42
 49
    0.42
 49
    -0.42
 49
    0.42
 49
    -0.42
  0
LTYPE
  2
HIDDEN
 70
    64
 3

 72
    65
 73
    2
 40
    4
 49
    2
 49
    -2
  0
LTYPE
  2
PHANTOM
 70
    64
 3

 72
    65
 73
    6
 40
    12.7
 49
    6.35
 49
    -1.27
 49
    1.27
 49
    -1.27
 49
    1.27
 49
    -1.27
  0
LTYPE
  2
CENTER
 70
    64
 3

 72
    65
 73
    4
 40
    10.16
 49
    6.35
 49
    -1.27
 49
    1.27
 49
    -1.27
  0
LTYPE
  2
CENTERX2
 70
    64
 3

 72
    65
 73
    4
 40
    20.32
 49
    12.7
 49
    -2.54
 49
    2.54
 49
    -2.54
  0
LTYPE
  2
DOT2
 70
    64
 3

 72
    65
 73
    2
 40
    0.635
 49
    0
 49
    -0.635
  0
ENDTAB
  0
TABLE
  2
LAYER
 70
   257
  0
LAYER
  2
画層0
 70
    0
 62
7
  6
CONTINUOUS
  0
LAYER
  2
画層1
 70
    0
 62
96
  6
CONTINUOUS
  0
LAYER
  2
画層2
 70
    0
 62
7
  6
CONTINUOUS
  0
LAYER
  2
画層3
 70
    0
 62
5
  6
CONTINUOUS
  0
LAYER
  2
画層4
 70
    0
 62
11
  6
CONTINUOUS
  0
LAYER
  2
画層5
 70
    0
 62
1
  6
CONTINUOUS
  0
LAYER
  2
画層6
 70
    0
 62
7
  6
CONTINUOUS
  0
LAYER
  2
画層7
 70
    0
 62
51
  6
CONTINUOUS
  0
LAYER
  2
画層8
 70
    0
 62
61
  6
CONTINUOUS
  0
LAYER
  2
画層9
 70
    0
 62
111
  6
CONTINUOUS
  0
LAYER
  2
画層10
 70
    0
 62
91
  6
CONTINUOUS
  0
LAYER
  2
画層11
 70
    0
 62
131
  6
CONTINUOUS
  0
LAYER
  2
画層12
 70
    0
 62
161
  6
CONTINUOUS
  0
LAYER
  2
画層13
 70
    0
 62
5
  6
CONTINUOUS
  0
LAYER
  2
画層14
 70
    0
 62
7
  6
CONTINUOUS
  0
LAYER
  2
画層15
 70
    0
 62
11
  6
CONTINUOUS
  0
LAYER
  2
画層16
 70
    0
 62
7
  6
CONTINUOUS
  0
LAYER
  2
画層17
 70
    0
 62
70
  6
CONTINUOUS
  0
LAYER
  2
画層18
 70
    0
 62
211
  6
CONTINUOUS
  0
LAYER
  2
画層19
 70
    0
 62
137
  6
CONTINUOUS
  0
LAYER
  2
画層20
 70
    0
 62
4
  6
CONTINUOUS
  0
LAYER
  2
画層21
 70
    0
 62
131
  6
CONTINUOUS
  0
LAYER
  2
画層22
 70
    0
 62
4
  6
CONTINUOUS
  0
LAYER
  2
画層23
 70
    0
 62
4
  6
CONTINUOUS
  0
LAYER
  2
画層24
 70
    0
 62
7
  6
CONTINUOUS
  0
LAYER
  2
画層25
 70
    0
 62
7
  6
CONTINUOUS
  0
LAYER
  2
画層26
 70
    0
 62
7
  6
CONTINUOUS
  0
LAYER
  2
画層27
 70
    0
 62
7
  6
CONTINUOUS
  0
LAYER
  2
画層28
 70
    0
 62
7
  6
CONTINUOUS
  0
LAYER
  2
画層29
 70
    0
 62
7
  6
CONTINUOUS
  0
LAYER
  2
画層30
 70
    0
 62
7
  6
CONTINUOUS
  0
LAYER
  2
画層31
 70
    0
 62
7
  6
CONTINUOUS
  0
LAYER
  2
画層32
 70
    0
 62
7
  6
CONTINUOUS
  0
LAYER
  2
画層33
 70
    0
 62
7
  6
CONTINUOUS
  0
LAYER
  2
画層34
 70
    0
 62
7
  6
CONTINUOUS
  0
LAYER
  2
画層35
 70
    0
 62
7
  6
CONTINUOUS
  0
LAYER
  2
画層36
 70
    0
 62
7
  6
CONTINUOUS
  0
LAYER
  2
画層37
 70
    0
 62
7
  6
CONTINUOUS
  0
LAYER
  2
画層38
 70
    0
 62
7
  6
CONTINUOUS
  0
LAYER
  2
画層39
 70
    0
 62
7
  6
CONTINUOUS
  0
LAYER
  2
画層40
 70
    0
 62
7
  6
CONTINUOUS
  0
LAYER
  2
画層41
 70
    0
 62
7
  6
CONTINUOUS
  0
LAYER
  2
画層42
 70
    0
 62
7
  6
CONTINUOUS
  0
LAYER
  2
画層43
 70
    0
 62
7
  6
CONTINUOUS
  0
LAYER
  2
画層44
 70
    0
 62
7
  6
CONTINUOUS
  0
LAYER
  2
画層45
 70
    0
 62
7
  6
CONTINUOUS
  0
LAYER
  2
画層46
 70
    0
 62
7
  6
CONTINUOUS
  0
LAYER
  2
画層47
 70
    0
 62
7
  6
CONTINUOUS
  0
LAYER
  2
画層48
 70
    0
 62
7
  6
CONTINUOUS
  0
LAYER
  2
画層49
 70
    0
 62
7
  6
CONTINUOUS
  0
LAYER
  2
画層50
 70
    0
 62
7
  6
CONTINUOUS
  0
LAYER
  2
画層51
 70
    0
 62
7
  6
CONTINUOUS
  0
LAYER
  2
画層52
 70
    0
 62
7
  6
CONTINUOUS
  0
LAYER
  2
画層53
 70
    0
 62
7
  6
CONTINUOUS
  0
LAYER
  2
画層54
 70
    0
 62
7
  6
CONTINUOUS
  0
LAYER
  2
画層55
 70
    0
 62
7
  6
CONTINUOUS
  0
LAYER
  2
画層56
 70
    0
 62
7
  6
CONTINUOUS
  0
LAYER
  2
画層57
 70
    0
 62
7
  6
CONTINUOUS
  0
LAYER
  2
画層58
 70
    0
 62
7
  6
CONTINUOUS
  0
LAYER
  2
画層59
 70
    0
 62
7
  6
CONTINUOUS
  0
LAYER
  2
画層60
 70
    0
 62
7
  6
CONTINUOUS
  0
LAYER
  2
画層61
 70
    0
 62
7
  6
CONTINUOUS
  0
LAYER
  2
画層62
 70
    0
 62
7
  6
CONTINUOUS
  0
LAYER
  2
画層63
 70
    0
 62
7
  6
CONTINUOUS
  0
LAYER
  2
画層64
 70
    0
 62
7
  6
CONTINUOUS
  0
LAYER
  2
画層65
 70
    0
 62
7
  6
CONTINUOUS
  0
LAYER
  2
画層66
 70
    0
 62
7
  6
CONTINUOUS
  0
LAYER
  2
画層67
 70
    0
 62
7
  6
CONTINUOUS
  0
LAYER
  2
画層68
 70
    0
 62
7
  6
CONTINUOUS
  0
LAYER
  2
画層69
 70
    0
 62
7
  6
CONTINUOUS
  0
LAYER
  2
画層70
 70
    0
 62
7
  6
CONTINUOUS
  0
LAYER
  2
画層71
 70
    0
 62
7
  6
CONTINUOUS
  0
LAYER
  2
画層72
 70
    0
 62
7
  6
CONTINUOUS
  0
LAYER
  2
画層73
 70
    0
 62
7
  6
CONTINUOUS
  0
LAYER
  2
画層74
 70
    0
 62
7
  6
CONTINUOUS
  0
LAYER
  2
画層75
 70
    0
 62
7
  6
CONTINUOUS
  0
LAYER
  2
画層76
 70
    0
 62
7
  6
CONTINUOUS
  0
LAYER
  2
画層77
 70
    0
 62
7
  6
CONTINUOUS
  0
LAYER
  2
画層78
 70
    0
 62
7
  6
CONTINUOUS
  0
LAYER
  2
画層79
 70
    0
 62
7
  6
CONTINUOUS
  0
LAYER
  2
画層80
 70
    0
 62
7
  6
CONTINUOUS
  0
LAYER
  2
画層81
 70
    0
 62
7
  6
CONTINUOUS
  0
LAYER
  2
画層82
 70
    0
 62
7
  6
CONTINUOUS
  0
LAYER
  2
画層83
 70
    0
 62
7
  6
CONTINUOUS
  0
LAYER
  2
画層84
 70
    0
 62
7
  6
CONTINUOUS
  0
LAYER
  2
画層85
 70
    0
 62
7
  6
CONTINUOUS
  0
LAYER
  2
画層86
 70
    0
 62
7
  6
CONTINUOUS
  0
LAYER
  2
画層87
 70
    0
 62
7
  6
CONTINUOUS
  0
LAYER
  2
画層88
 70
    0
 62
7
  6
CONTINUOUS
  0
LAYER
  2
画層89
 70
    0
 62
7
  6
CONTINUOUS
  0
LAYER
  2
画層90
 70
    0
 62
7
  6
CONTINUOUS
  0
LAYER
  2
画層91
 70
    0
 62
7
  6
CONTINUOUS
  0
LAYER
  2
画層92
 70
    0
 62
7
  6
CONTINUOUS
  0
LAYER
  2
画層93
 70
    0
 62
7
  6
CONTINUOUS
  0
LAYER
  2
画層94
 70
    0
 62
7
  6
CONTINUOUS
  0
LAYER
  2
画層95
 70
    0
 62
7
  6
CONTINUOUS
  0
LAYER
  2
画層96
 70
    0
 62
7
  6
CONTINUOUS
  0
LAYER
  2
画層97
 70
    0
 62
7
  6
CONTINUOUS
  0
LAYER
  2
画層98
 70
    0
 62
7
  6
CONTINUOUS
  0
LAYER
  2
画層99
 70
    0
 62
7
  6
CONTINUOUS
  0
LAYER
  2
画層100
 70
    0
 62
7
  6
CONTINUOUS
  0
LAYER
  2
画層101
 70
    0
 62
7
  6
CONTINUOUS
  0
LAYER
  2
画層102
 70
    0
 62
7
  6
CONTINUOUS
  0
LAYER
  2
画層103
 70
    0
 62
7
  6
CONTINUOUS
  0
LAYER
  2
画層104
 70
    0
 62
7
  6
CONTINUOUS
  0
LAYER
  2
画層105
 70
    0
 62
7
  6
CONTINUOUS
  0
LAYER
  2
画層106
 70
    0
 62
7
  6
CONTINUOUS
  0
LAYER
  2
画層107
 70
    0
 62
7
  6
CONTINUOUS
  0
LAYER
  2
画層108
 70
    0
 62
7
  6
CONTINUOUS
  0
LAYER
  2
画層109
 70
    0
 62
7
  6
CONTINUOUS
  0
LAYER
  2
画層110
 70
    0
 62
7
  6
CONTINUOUS
  0
LAYER
  2
画層111
 70
    0
 62
7
  6
CONTINUOUS
  0
LAYER
  2
画層112
 70
    0
 62
7
  6
CONTINUOUS
  0
LAYER
  2
画層113
 70
    0
 62
7
  6
CONTINUOUS
  0
LAYER
  2
画層114
 70
    0
 62
7
  6
CONTINUOUS
  0
LAYER
  2
画層115
 70
    0
 62
7
  6
CONTINUOUS
  0
LAYER
  2
画層116
 70
    0
 62
7
  6
CONTINUOUS
  0
LAYER
  2
画層117
 70
    0
 62
7
  6
CONTINUOUS
  0
LAYER
  2
画層118
 70
    0
 62
7
  6
CONTINUOUS
  0
LAYER
  2
画層119
 70
    0
 62
7
  6
CONTINUOUS
  0
LAYER
  2
画層120
 70
    0
 62
7
  6
CONTINUOUS
  0
LAYER
  2
画層121
 70
    0
 62
7
  6
CONTINUOUS
  0
LAYER
  2
画層122
 70
    0
 62
7
  6
CONTINUOUS
  0
LAYER
  2
画層123
 70
    0
 62
7
  6
CONTINUOUS
  0
LAYER
  2
画層124
 70
    0
 62
7
  6
CONTINUOUS
  0
LAYER
  2
画層125
 70
    0
 62
7
  6
CONTINUOUS
  0
LAYER
  2
画層126
 70
    0
 62
7
  6
CONTINUOUS
  0
LAYER
  2
画層127
 70
    0
 62
7
  6
CONTINUOUS
  0
LAYER
  2
画層128
 70
    0
 62
7
  6
CONTINUOUS
  0
LAYER
  2
画層129
 70
    0
 62
7
  6
CONTINUOUS
  0
LAYER
  2
画層130
 70
    0
 62
7
  6
CONTINUOUS
  0
LAYER
  2
画層131
 70
    0
 62
7
  6
CONTINUOUS
  0
LAYER
  2
画層132
 70
    0
 62
7
  6
CONTINUOUS
  0
LAYER
  2
画層133
 70
    0
 62
7
  6
CONTINUOUS
  0
LAYER
  2
画層134
 70
    0
 62
7
  6
CONTINUOUS
  0
LAYER
  2
画層135
 70
    0
 62
7
  6
CONTINUOUS
  0
LAYER
  2
画層136
 70
    0
 62
7
  6
CONTINUOUS
  0
LAYER
  2
画層137
 70
    0
 62
7
  6
CONTINUOUS
  0
LAYER
  2
画層138
 70
    0
 62
7
  6
CONTINUOUS
  0
LAYER
  2
画層139
 70
    0
 62
7
  6
CONTINUOUS
  0
LAYER
  2
画層140
 70
    0
 62
7
  6
CONTINUOUS
  0
LAYER
  2
画層141
 70
    0
 62
7
  6
CONTINUOUS
  0
LAYER
  2
画層142
 70
    0
 62
7
  6
CONTINUOUS
  0
LAYER
  2
画層143
 70
    0
 62
7
  6
CONTINUOUS
  0
LAYER
  2
画層144
 70
    0
 62
7
  6
CONTINUOUS
  0
LAYER
  2
画層145
 70
    0
 62
7
  6
CONTINUOUS
  0
LAYER
  2
画層146
 70
    0
 62
7
  6
CONTINUOUS
  0
LAYER
  2
画層147
 70
    0
 62
7
  6
CONTINUOUS
  0
LAYER
  2
画層148
 70
    0
 62
7
  6
CONTINUOUS
  0
LAYER
  2
画層149
 70
    0
 62
7
  6
CONTINUOUS
  0
LAYER
  2
画層150
 70
    0
 62
7
  6
CONTINUOUS
  0
LAYER
  2
画層151
 70
    0
 62
7
  6
CONTINUOUS
  0
LAYER
  2
画層152
 70
    0
 62
7
  6
CONTINUOUS
  0
LAYER
  2
画層153
 70
    0
 62
7
  6
CONTINUOUS
  0
LAYER
  2
画層154
 70
    0
 62
7
  6
CONTINUOUS
  0
LAYER
  2
画層155
 70
    0
 62
7
  6
CONTINUOUS
  0
LAYER
  2
画層156
 70
    0
 62
7
  6
CONTINUOUS
  0
LAYER
  2
画層157
 70
    0
 62
7
  6
CONTINUOUS
  0
LAYER
  2
画層158
 70
    0
 62
7
  6
CONTINUOUS
  0
LAYER
  2
画層159
 70
    0
 62
7
  6
CONTINUOUS
  0
LAYER
  2
画層160
 70
    0
 62
7
  6
CONTINUOUS
  0
LAYER
  2
画層161
 70
    0
 62
7
  6
CONTINUOUS
  0
LAYER
  2
画層162
 70
    0
 62
7
  6
CONTINUOUS
  0
LAYER
  2
画層163
 70
    0
 62
7
  6
CONTINUOUS
  0
LAYER
  2
画層164
 70
    0
 62
7
  6
CONTINUOUS
  0
LAYER
  2
画層165
 70
    0
 62
7
  6
CONTINUOUS
  0
LAYER
  2
画層166
 70
    0
 62
7
  6
CONTINUOUS
  0
LAYER
  2
画層167
 70
    0
 62
7
  6
CONTINUOUS
  0
LAYER
  2
画層168
 70
    0
 62
7
  6
CONTINUOUS
  0
LAYER
  2
画層169
 70
    0
 62
7
  6
CONTINUOUS
  0
LAYER
  2
画層170
 70
    0
 62
7
  6
CONTINUOUS
  0
LAYER
  2
画層171
 70
    0
 62
7
  6
CONTINUOUS
  0
LAYER
  2
画層172
 70
    0
 62
7
  6
CONTINUOUS
  0
LAYER
  2
画層173
 70
    0
 62
7
  6
CONTINUOUS
  0
LAYER
  2
画層174
 70
    0
 62
7
  6
CONTINUOUS
  0
LAYER
  2
画層175
 70
    0
 62
7
  6
CONTINUOUS
  0
LAYER
  2
画層176
 70
    0
 62
7
  6
CONTINUOUS
  0
LAYER
  2
画層177
 70
    0
 62
7
  6
CONTINUOUS
  0
LAYER
  2
画層178
 70
    0
 62
7
  6
CONTINUOUS
  0
LAYER
  2
画層179
 70
    0
 62
7
  6
CONTINUOUS
  0
LAYER
  2
画層180
 70
    0
 62
7
  6
CONTINUOUS
  0
LAYER
  2
画層181
 70
    0
 62
7
  6
CONTINUOUS
  0
LAYER
  2
画層182
 70
    0
 62
7
  6
CONTINUOUS
  0
LAYER
  2
画層183
 70
    0
 62
7
  6
CONTINUOUS
  0
LAYER
  2
画層184
 70
    0
 62
7
  6
CONTINUOUS
  0
LAYER
  2
画層185
 70
    0
 62
7
  6
CONTINUOUS
  0
LAYER
  2
画層186
 70
    0
 62
7
  6
CONTINUOUS
  0
LAYER
  2
画層187
 70
    0
 62
7
  6
CONTINUOUS
  0
LAYER
  2
画層188
 70
    0
 62
7
  6
CONTINUOUS
  0
LAYER
  2
画層189
 70
    0
 62
7
  6
CONTINUOUS
  0
LAYER
  2
画層190
 70
    0
 62
7
  6
CONTINUOUS
  0
LAYER
  2
画層191
 70
    0
 62
7
  6
CONTINUOUS
  0
LAYER
  2
画層192
 70
    0
 62
7
  6
CONTINUOUS
  0
LAYER
  2
画層193
 70
    0
 62
7
  6
CONTINUOUS
  0
LAYER
  2
画層194
 70
    0
 62
7
  6
CONTINUOUS
  0
LAYER
  2
画層195
 70
    0
 62
7
  6
CONTINUOUS
  0
LAYER
  2
画層196
 70
    0
 62
7
  6
CONTINUOUS
  0
LAYER
  2
画層197
 70
    0
 62
7
  6
CONTINUOUS
  0
LAYER
  2
画層198
 70
    0
 62
7
  6
CONTINUOUS
  0
LAYER
  2
画層199
 70
    0
 62
7
  6
CONTINUOUS
  0
LAYER
  2
画層200
 70
    0
 62
7
  6
CONTINUOUS
  0
LAYER
  2
画層201
 70
    0
 62
7
  6
CONTINUOUS
  0
LAYER
  2
画層202
 70
    0
 62
7
  6
CONTINUOUS
  0
LAYER
  2
画層203
 70
    0
 62
7
  6
CONTINUOUS
  0
LAYER
  2
画層204
 70
    0
 62
7
  6
CONTINUOUS
  0
LAYER
  2
画層205
 70
    0
 62
7
  6
CONTINUOUS
  0
LAYER
  2
画層206
 70
    0
 62
7
  6
CONTINUOUS
  0
LAYER
  2
画層207
 70
    0
 62
7
  6
CONTINUOUS
  0
LAYER
  2
画層208
 70
    0
 62
7
  6
CONTINUOUS
  0
LAYER
  2
画層209
 70
    0
 62
7
  6
CONTINUOUS
  0
LAYER
  2
画層210
 70
    0
 62
7
  6
CONTINUOUS
  0
LAYER
  2
画層211
 70
    0
 62
7
  6
CONTINUOUS
  0
LAYER
  2
画層212
 70
    0
 62
7
  6
CONTINUOUS
  0
LAYER
  2
画層213
 70
    0
 62
7
  6
CONTINUOUS
  0
LAYER
  2
画層214
 70
    0
 62
7
  6
CONTINUOUS
  0
LAYER
  2
画層215
 70
    0
 62
7
  6
CONTINUOUS
  0
LAYER
  2
画層216
 70
    0
 62
7
  6
CONTINUOUS
  0
LAYER
  2
画層217
 70
    0
 62
7
  6
CONTINUOUS
  0
LAYER
  2
画層218
 70
    0
 62
7
  6
CONTINUOUS
  0
LAYER
  2
画層219
 70
    0
 62
7
  6
CONTINUOUS
  0
LAYER
  2
画層220
 70
    0
 62
7
  6
CONTINUOUS
  0
LAYER
  2
画層221
 70
    0
 62
7
  6
CONTINUOUS
  0
LAYER
  2
画層222
 70
    0
 62
7
  6
CONTINUOUS
  0
LAYER
  2
画層223
 70
    0
 62
7
  6
CONTINUOUS
  0
LAYER
  2
画層224
 70
    0
 62
7
  6
CONTINUOUS
  0
LAYER
  2
画層225
 70
    0
 62
7
  6
CONTINUOUS
  0
LAYER
  2
画層226
 70
    0
 62
7
  6
CONTINUOUS
  0
LAYER
  2
画層227
 70
    0
 62
7
  6
CONTINUOUS
  0
LAYER
  2
画層228
 70
    0
 62
7
  6
CONTINUOUS
  0
LAYER
  2
画層229
 70
    0
 62
7
  6
CONTINUOUS
  0
LAYER
  2
画層230
 70
    0
 62
7
  6
CONTINUOUS
  0
LAYER
  2
画層231
 70
    0
 62
7
  6
CONTINUOUS
  0
LAYER
  2
画層232
 70
    0
 62
7
  6
CONTINUOUS
  0
LAYER
  2
画層233
 70
    0
 62
7
  6
CONTINUOUS
  0
LAYER
  2
画層234
 70
    0
 62
7
  6
CONTINUOUS
  0
LAYER
  2
画層235
 70
    0
 62
7
  6
CONTINUOUS
  0
LAYER
  2
画層236
 70
    0
 62
7
  6
CONTINUOUS
  0
LAYER
  2
画層237
 70
    0
 62
7
  6
CONTINUOUS
  0
LAYER
  2
画層238
 70
    0
 62
7
  6
CONTINUOUS
  0
LAYER
  2
画層239
 70
    0
 62
7
  6
CONTINUOUS
  0
LAYER
  2
画層240
 70
    0
 62
7
  6
CONTINUOUS
  0
LAYER
  2
画層241
 70
    0
 62
7
  6
CONTINUOUS
  0
LAYER
  2
画層242
 70
    0
 62
7
  6
CONTINUOUS
  0
LAYER
  2
画層243
 70
    0
 62
7
  6
CONTINUOUS
  0
LAYER
  2
画層244
 70
    0
 62
7
  6
CONTINUOUS
  0
LAYER
  2
画層245
 70
    0
 62
7
  6
CONTINUOUS
  0
LAYER
  2
画層246
 70
    0
 62
7
  6
CONTINUOUS
  0
LAYER
  2
画層247
 70
    0
 62
7
  6
CONTINUOUS
  0
LAYER
  2
画層248
 70
    0
 62
7
  6
CONTINUOUS
  0
LAYER
  2
画層249
 70
    0
 62
7
  6
CONTINUOUS
  0
LAYER
  2
画層250
 70
    0
 62
7
  6
CONTINUOUS
  0
LAYER
  2
画層251
 70
    0
 62
7
  6
CONTINUOUS
  0
LAYER
  2
画層252
 70
    0
 62
7
  6
CONTINUOUS
  0
LAYER
  2
画層253
 70
    0
 62
7
  6
CONTINUOUS
  0
LAYER
  2
画層254
 70
    0
 62
7
  6
CONTINUOUS
  0
LAYER
  2
画層255
 70
    0
 62
7
  6
CONTINUOUS
  0
LAYER
  2
0
 70
   64
 62
    7
  6
CONTINUOUS
  0
ENDTAB
  0
TABLE
  2
STYLE
 70
     1
  0
STYLE
  2
Standard
 70
     0
 40
0.0
 41
1.0
 50
0.0
 71
     0
 42
3.2
  3
TXT
  4
BIGFONT
  0
STYLE
  2
Font_0
 70
     0
 40
0.0
 41
1.0
 50
0.0
 71
     0
 42
3.2
  3
txt
  4
BIGFONT
  0
ENDTAB
  0
ENDSEC
  0
SECTION
  2
ENTITIES
  0
POLYLINE
  8
画層2
  6
CONTINUOUS
 10
0.0
 20
0.0
 30
0.0
 66
1
 70
     1
  0
VERTEX
  8
画層2
 10
68.5
  20
125
  0
VERTEX
  8
画層2
 10
91.5
  20
125
  0
VERTEX
  8
画層2
 10
91.5
  20
148.3
  0
VERTEX
  8
画層2
 10
68.5
  20
148.3
  0
SEQEND
100
AcDbEntity
  8
画層2
  0
POLYLINE
  8
画層2
  6
CONTINUOUS
 10
0.0
 20
0.0
 30
0.0
 66
1
 70
     1
  0
VERTEX
  8
画層2
 10
64
  20
141.1
  0
VERTEX
  8
画層2
 10
68.5
  20
141.1
  0
VERTEX
  8
画層2
 10
68.5
  20
143.6
  0
VERTEX
  8
画層2
 10
64
  20
143.6
  0
SEQEND
100
AcDbEntity
  8
画層2
  0
POLYLINE
  8
画層2
  6
CONTINUOUS
 10
0.0
 20
0.0
 30
0.0
 66
1
 70
     1
  0
VERTEX
  8
画層2
 10
91.5
  20
141.1
  0
VERTEX
  8
画層2
 10
96
  20
141.1
  0
VERTEX
  8
画層2
 10
96
  20
143.6
  0
VERTEX
  8
画層2
 10
91.5
  20
143.6
  0
SEQEND
100
AcDbEntity
  8
画層2
  0
LINE
  8
画層2
  6
DASHDOT
 10
80
 20
121.38
 11
80
 21
155
  0
LINE
  8
画層2
  6
DASHDOT
 10
74
 20
145.5925
 11
74
 21
157.495406990878
  0
LINE
  8
画層2
  6
CONTINUOUS
 10
72.38
 20
152.3
 11
72.38
 21
155.5
  0
LINE
  8
画層2
  6
CONTINUOUS
 10
72.38
 20
155.5
 11
75.58
 21
155.5
  0
LINE
  8
画層2
  6
CONTINUOUS
 10
75.58
 20
155.5
 11
75.58
 21
152.3
  0
LINE
  8
画層2
  6
CONTINUOUS
 10
68.92
 20
148.3
 11
68.92
 21
152.3
  0
LINE
  8
画層2
  6
CONTINUOUS
 10
68.92
 20
152.3
 11
79.08
 21
152.3
  0
LINE
  8
画層2
  6
CONTINUOUS
 10
82.6
 20
148.3
 11
82.6
 21
152.3
  0
LINE
  8
画層2
  6
CONTINUOUS
 10
82.6
 20
152.3
 11
79.08
 21
152.3
  0
LINE
  8
画層2
  6
CONTINUOUS
 10
81.15
 20
152.3
 11
81.15
 21
153
  0
LINE
  8
画層2
  6
CONTINUOUS
 10
81.15
 20
153
 11
78.85
 21
153
  0
LINE
  8
画層2
  6
CONTINUOUS
 10
78.85
 20
152.3
 11
78.85
 21
153
  0
LINE
  8
画層2
  6
CONTINUOUS
 10
69.5
 20
125
 11
69.5
 21
120.535
  0
LINE
  8
画層2
  6
CONTINUOUS
 10
70.5
 20
125
 11
70.5
 21
120.34
  0
LINE
  8
画層2
  6
DASHDOT
 10
70
 20
126.71
 11
70
 21
118.585000000006
  0
LINE
  8
画層2
  6
CONTINUOUS
 10
68.5
 20
191.1875
 11
91.5
 21
191.1875
  0
LINE
  8
画層2
  6
CONTINUOUS
 10
91.5
 20
191.1875
 11
91.5
 21
179.1875
  0
LINE
  8
画層2
  6
CONTINUOUS
 10
91.5
 20
179.1875
 11
68.5
 21
179.1875
  0
LINE
  8
画層2
  6
CONTINUOUS
 10
68.5
 20
179.1875
 11
68.5
 21
191.1875
  0
LINE
  8
画層2
  6
CONTINUOUS
 10
68.5
 20
190.8875
 11
64
 21
190.8875
  0
LINE
  8
画層2
  6
CONTINUOUS
 10
64
 20
179.4875
 11
68.5
 21
179.4875
  0
LINE
  8
画層2
  6
CONTINUOUS
 10
68.5
 20
179.4875
 11
68.5
 21
190.8875
  0
LINE
  8
画層2
  6
CONTINUOUS
 10
91.5
 20
190.8875
 11
96
 21
190.8875
  0
LINE
  8
画層2
  6
CONTINUOUS
 10
96
 20
179.4875
 11
91.5
 21
179.4875
  0
LINE
  8
画層2
  6
CONTINUOUS
 10
91.5
 20
179.4875
 11
91.5
 21
190.8875
  0
ARC
  8
画層2
  6
CONTINUOUS
 10
74
 20
185.1875
 40
5.08000000000001
 50
30.7845365810553
 51
-30.7845365810553
  0
ARC
  8
画層2
  6
CONTINUOUS
 10
80
 20
185.1875
 40
2.59999999999999
 50
-90
 51
90
  0
CIRCLE
  8
画層2
  6
CONTINUOUS
 10
80
 20
185.1875
 40
1.15000000000001
  0
CIRCLE
  8
画層2
  6
CONTINUOUS
 10
74
 20
185.1875
 40
1.58000000000001
  0
LINE
  8
画層2
  6
DASHDOT
 10
62.1355888217029
 20
185.1875
 11
97.5
 21
185.1875
  0
LINE
  8
画層2
  6
DASHDOT
 10
80
 20
177.3125
 11
80
 21
192.6875
  0
LINE
  8
画層2
  6
DASHDOT
 10
74
 20
177.7025
 11
74
 21
193.361465516408
  0
LINE
  8
画層2
  6
CONTINUOUS
 10
80
 20
182.5875
 11
78.3642181430355
 21
182.5875
  0
LINE
  8
画層2
  6
CONTINUOUS
 10
80
 20
187.7875
 11
78.3642181430355
 21
187.7875
  0
CIRCLE
  8
画層2
  6
CONTINUOUS
 10
74
 20
185.1875
 40
0.9
  0
LINE
  8
画層2
  6
DOT
 10
74.9
 20
151.607237484767
 11
74.9
 21
155.5
  0
LINE
  8
画層2
  6
DOT
 10
73.1
 20
155.5
 11
73.1
 21
151.623256696805
  0
LINE
  8
画層2
  6
DOT
 10
73.1
 20
151.623256696805
 11
74.9
 21
151.607237484767
  0
LINE
  8
画層2
  6
DASHDOT
 10
66
 20
182.13
 11
66
 21
188.0775
  0
LINE
  8
画層2
  6
DASHDOT
 10
94
 20
182
 11
94
 21
187.723385844212
  0
ARC
  8
画層2
  6
CONTINUOUS
 10
66
 20
185.1875
 40
1.4
 50
-152.335995503811
 51
152.335995503811
  0
ARC
  8
画層2
  6
CONTINUOUS
 10
94
 20
185.1875
 40
1.4
 50
27.6640044961894
 51
-27.6640044961894
  0
LINE
  8
画層2
  6
CONTINUOUS
 10
64
 20
185.8375
 11
64.7600403232363
 21
185.8375
  0
LINE
  8
画層2
  6
CONTINUOUS
 10
64
 20
184.5375
 11
64.7600403232363
 21
184.5375
  0
LINE
  8
画層2
  6
CONTINUOUS
 10
95.2399596767637
 20
185.8375
 11
96
 21
185.8375
  0
LINE
  8
画層2
  6
CONTINUOUS
 10
95.2399596767637
 20
184.5375
 11
96
 21
184.5375
  0
LINE
  8
画層2
  6
CONTINUOUS
 10
64
 20
190.8875
 11
64
 21
185.8375
  0
LINE
  8
画層2
  6
CONTINUOUS
 10
64
 20
184.5375
 11
64
 21
179.4875
  0
LINE
  8
画層2
  6
CONTINUOUS
 10
96
 20
190.8875
 11
96
 21
185.8375
  0
LINE
  8
画層2
  6
CONTINUOUS
 10
96
 20
184.5375
 11
96
 21
179.4875
  0
LINE
  8
画層2
  6
DASHDOT
 10
66
 20
146.555862733871
 11
66
 21
138.438785821351
  0
LINE
  8
画層2
  6
DASHDOT
 10
94
 20
146.499114502259
 11
94
 21
138.173649248322
  0
LINE
  8
画層2
  6
CONTINUOUS
 10
78.3642181430355
 20
148.3
 11
78.3642181430355
 21
152.3
  0
LINE
  8
画層2
  6
CONTINUOUS
 10
24
 20
125
 11
36
 21
125
  0
LINE
  8
画層2
  6
CONTINUOUS
 10
36
 20
125
 11
36
 21
148.3
  0
LINE
  8
画層2
  6
CONTINUOUS
 10
36
 20
148.3
 11
24
 21
148.3
  0
LINE
  8
画層2
  6
CONTINUOUS
 10
24
 20
148.3
 11
24
 21
125
  0
LINE
  8
画層2
  6
CONTINUOUS
 10
24.3
 20
143.6
 11
24.3
 21
141.1
  0
LINE
  8
画層2
  6
CONTINUOUS
 10
24.3
 20
141.1
 11
35.7
 21
141.1
  0
LINE
  8
画層2
  6
CONTINUOUS
 10
35.7
 20
141.1
 11
35.7
 21
143.6
  0
LINE
  8
画層2
  6
CONTINUOUS
 10
35.7
 20
143.6
 11
24.3
 21
143.6
  0
LINE
  8
画層2
  6
CONTINUOUS
 10
29.35
 20
141.1
 11
29.35
 21
143.6
  0
LINE
  8
画層2
  6
CONTINUOUS
 10
30.65
 20
143.6
 11
30.65
 21
141.1
  0
LINE
  8
画層2
  6
CONTINUOUS
 10
24.92
 20
148.3
 11
24.92
 21
152.3
  0
LINE
  8
画層2
  6
CONTINUOUS
 10
24.92
 20
152.3
 11
35.08
 21
152.3
  0
LINE
  8
画層2
  6
CONTINUOUS
 10
35.08
 20
152.3
 11
35.08
 21
148.3
  0
LINE
  8
画層2
  6
CONTINUOUS
 10
31.58
 20
152.3
 11
31.58
 21
155.5
  0
LINE
  8
画層2
  6
CONTINUOUS
 10
31.58
 20
155.5
 11
28.42
 21
155.5
  0
LINE
  8
画層2
  6
CONTINUOUS
 10
28.42
 20
155.5
 11
28.42
 21
152.3
  0
LINE
  8
画層2
  6
DASHDOT
 10
30
 20
156.915
 11
30
 21
121.294795878407
  0
LINE
  8
画層2
  6
DOT
 10
30.9
 20
151.623256696805
 11
30.9
 21
155.5
  0
LINE
  8
画層2
  6
DOT
 10
29.1
 20
151.623256696805
 11
29.1
 21
155.5
  0
LINE
  8
画層2
  6
DOT
 10
29.1
 20
151.623256696805
 11
30.9
 21
151.623256696805
  0
LINE
  8
画層2
  6
DASHDOT
 10
29
 20
120.650656075036
 11
29
 21
127.351954518559
  0
LINE
  8
画層2
  6
DASHDOT
 10
31
 20
120.945957058437
 11
31
 21
127.322087975527
  0
LINE
  8
画層2
  6
CONTINUOUS
 10
31.5
 20
125
 11
31.5
 21
122.28
  0
LINE
  8
画層2
  6
CONTINUOUS
 10
30.5
 20
125
 11
30.5
 21
122.3775
  0
LINE
  8
画層2
  6
CONTINUOUS
 10
29.5
 20
125
 11
29.5
 21
122.54
  0
LINE
  8
画層2
  6
CONTINUOUS
 10
28.5
 20
125
 11
28.5
 21
122.475
  0
CIRCLE
  8
画層3
  6
CONTINUOUS
 10
178.77775612556
 20
113.477349636795
 40
3.35
  0
CIRCLE
  8
画層3
  6
CONTINUOUS
 10
178.77775612556
 20
113.477349636795
 40
2.05
  0
ARC
  8
画層3
  6
CONTINUOUS
 10
163.12775612556
 20
113.477349636795
 40
1.75
 50
89.9999999999972
 51
-90
  0
ARC
  8
画層3
  6
CONTINUOUS
 10
194.42775612556
 20
113.477349636795
 40
1.75
 50
-90
 51
90
  0
ARC
  8
画層3
  6
CONTINUOUS
 10
178.77775612556
 20
120.027349636795
 40
1.84999999999999
 50
0
 51
180
  0
ARC
  8
画層3
  6
CONTINUOUS
 10
178.77775612556
 20
106.927349636795
 40
1.84999999999999
 50
180
 51
0
  0
LINE
  8
画層3
  6
CONTINUOUS
 10
163.12775612556
 20
115.227349636795
 11
176.92775612556
 21
116.877349636795
  0
LINE
  8
画層3
  6
CONTINUOUS
 10
163.12775612556
 20
111.727349636795
 11
176.92775612556
 21
110.077349636795
  0
LINE
  8
画層3
  6
CONTINUOUS
 10
180.62775612556
 20
116.877349636795
 11
194.42775612556
 21
115.227349636795
  0
LINE
  8
画層3
  6
CONTINUOUS
 10
180.62775612556
 20
110.077349636795
 11
194.42775612556
 21
111.727349636795
  0
LINE
  8
画層3
  6
CONTINUOUS
 10
180.62775612556
 20
116.877349636795
 11
180.62775612556
 21
120.027349636795
  0
LINE
  8
画層3
  6
CONTINUOUS
 10
176.92775612556
 20
116.877349636795
 11
176.92775612556
 21
120.027349636795
  0
LINE
  8
画層3
  6
CONTINUOUS
 10
176.92775612556
 20
110.077349636795
 11
176.92775612556
 21
106.927349636795
  0
LINE
  8
画層3
  6
CONTINUOUS
 10
180.62775612556
 20
110.077349636795
 11
180.62775612556
 21
106.927349636795
  0
CIRCLE
  8
画層3
  6
CONTINUOUS
 10
194.42775612556
 20
113.477349636795
 40
0.5
  0
CIRCLE
  8
画層3
  6
CONTINUOUS
 10
192.22775612556
 20
113.477349411743
 40
0.5
  0
CIRCLE
  8
画層3
  6
CONTINUOUS
 10
190.02775612556
 20
113.477349411743
 40
0.5
  0
CIRCLE
  8
画層3
  6
CONTINUOUS
 10
187.82775612556
 20
113.477349411743
 40
0.5
  0
CIRCLE
  8
画層3
  6
CONTINUOUS
 10
185.62775612556
 20
113.417686977296
 40
0.5
  0
CIRCLE
  8
画層3
  6
CONTINUOUS
 10
183.42775612556
 20
113.477349636795
 40
0.5
  0
LINE
  8
画層3
  6
DASHDOT
 10
183.42775612556
 20
111.502349636795
 11
183.42775612556
 21
116.005450866758
  0
LINE
  8
画層3
  6
DASHDOT
 10
185.62775612556
 20
111.277349636795
 11
185.62775612556
 21
115.677349636795
  0
LINE
  8
画層3
  6
DASHDOT
 10
187.82775612556
 20
111.277349636795
 11
187.82775612556
 21
115.677349636795
  0
LINE
  8
画層3
  6
DASHDOT
 10
190.02775612556
 20
111.277349636795
 11
190.02775612556
 21
115.677349636795
  0
LINE
  8
画層3
  6
DASHDOT
 10
192.22775612556
 20
111.277349636795
 11
192.22775612556
 21
115.490393115056
  0
LINE
  8
画層3
  6
DASHDOT
 10
194.42775612556
 20
111.277349636795
 11
194.42775612556
 21
115.677349636795
  0
CIRCLE
  8
画層3
  6
CONTINUOUS
 10
163.12775612556
 20
113.477349636795
 40
0.5
  0
CIRCLE
  8
画層3
  6
CONTINUOUS
 10
165.32775612556
 20
113.477349411743
 40
0.5
  0
CIRCLE
  8
画層3
  6
CONTINUOUS
 10
167.52775612556
 20
113.477349411743
 40
0.5
  0
CIRCLE
  8
画層3
  6
CONTINUOUS
 10
169.72775612556
 20
113.477349411743
 40
0.5
  0
CIRCLE
  8
画層3
  6
CONTINUOUS
 10
171.92775612556
 20
113.417686977296
 40
0.5
  0
CIRCLE
  8
画層3
  6
CONTINUOUS
 10
174.12775612556
 20
113.477349636795
 40
0.5
  0
LINE
  8
画層3
  6
DASHDOT
 10
174.12775612556
 20
111.502349636795
 11
174.12775612556
 21
116.005450866758
  0
LINE
  8
画層3
  6
DASHDOT
 10
171.92775612556
 20
111.277349636795
 11
171.92775612556
 21
115.677349636795
  0
LINE
  8
画層3
  6
DASHDOT
 10
169.72775612556
 20
111.277349636795
 11
169.72775612556
 21
115.677349636795
  0
LINE
  8
画層3
  6
DASHDOT
 10
167.52775612556
 20
111.277349636795
 11
167.52775612556
 21
115.677349636795
  0
LINE
  8
画層3
  6
DASHDOT
 10
165.32775612556
 20
111.277349636795
 11
165.32775612556
 21
115.490393115056
  0
LINE
  8
画層3
  6
DASHDOT
 10
163.12775612556
 20
111.277349636795
 11
163.12775612556
 21
115.677349636795
  0
CIRCLE
  8
画層3
  6
CONTINUOUS
 10
178.77775612556
 20
120.027349636795
 40
0.5
  0
CIRCLE
  8
画層3
  6
CONTINUOUS
 10
178.77775612556
 20
117.827349636795
 40
0.5
  0
CIRCLE
  8
画層3
  6
CONTINUOUS
 10
178.77775612556
 20
109.127349636795
 40
0.5
  0
CIRCLE
  8
画層3
  6
CONTINUOUS
 10
178.77775612556
 20
106.927349636795
 40
0.5
  0
LINE
  8
画層3
  6
DASHDOT
 10
175.743344947263
 20
120.027349636795
 11
181.853344947263
 21
120.027349636795
  0
LINE
  8
画層3
  6
DASHDOT
 10
176.92775612556
 20
117.827349636795
 11
180.62775612556
 21
117.827349636795
  0
LINE
  8
画層3
  6
DASHDOT
 10
176.92775612556
 20
109.127349636795
 11
180.488344947257
 21
109.127349636795
  0
LINE
  8
画層3
  6
DASHDOT
 10
176.92775612556
 20
106.927349636795
 11
180.62775612556
 21
106.927349636795
  0
LINE
  8
画層3
  6
DASHDOT
 10
158.77775612556
 20
113.477349636795
 11
198.77775612556
 21
113.477349636795
  0
LINE
  8
画層3
  6
DASHDOT
 10
178.77775612556
 20
103.477349636795
 11
178.77775612556
 21
123.477349636795
  0
POLYLINE
  8
画層3
  6
CONTINUOUS
 10
0.0
 20
0.0
 30
0.0
 66
1
 70
     1
  0
VERTEX
  8
画層3
 10
196.17775612556
  20
95.4773496367947
  0
VERTEX
  8
画層3
 10
161.37775612556
  20
95.4773496367947
  0
VERTEX
  8
画層3
 10
161.37775612556
  20
93.4773496367947
  0
VERTEX
  8
画層3
 10
196.17775612556
  20
93.4773496367947
  0
SEQEND
100
AcDbEntity
  8
画層3
  0
POLYLINE
  8
画層3
  6
CONTINUOUS
 10
0.0
 20
0.0
 30
0.0
 66
1
 70
     1
  0
VERTEX
  8
画層3
 10
182.12775612556
  20
97.4773496367947
  0
VERTEX
  8
画層3
 10
175.42775612556
  20
97.4773496367947
  0
VERTEX
  8
画層3
 10
175.42775612556
  20
95.4773496367947
  0
VERTEX
  8
画層3
 10
182.12775612556
  20
95.4773496367947
  0
SEQEND
100
AcDbEntity
  8
画層3
  0
LINE
  8
画層3
  6
CONTINUOUS
 10
176.92775612556
 20
93.4773496367947
 11
176.92775612556
 21
95.4773496367947
  0
LINE
  8
画層3
  6
CONTINUOUS
 10
180.62775612556
 20
93.4773496367947
 11
180.62775612556
 21
95.4773496367947
  0
LINE
  8
画層3
  6
DOT
 10
180.82775612556
 20
95.4773496367947
 11
180.82775612556
 21
97.4773496367947
  0
LINE
  8
画層3
  6
DOT
 10
176.72775612556
 20
95.4773496367947
 11
176.72775612556
 21
97.4773496367947
  0
LINE
  8
画層3
  6
DOT
 10
176.72775612556
 20
95.4773496367947
 11
180.82775612556
 21
95.4773496367947
  0
CIRCLE
  8
画層3
  6
CONTINUOUS
 10
178.77775612556
 20
113.477349636795
 40
1.15
  0
LINE
  8
画層3
  6
DOT
 10
181.02775612556
 20
93.4773496367947
 11
181.02775612556
 21
94.4773496367947
  0
LINE
  8
画層3
  6
DOT
 10
181.02775612556
 20
94.4773496367947
 11
176.52775612556
 21
94.4773496367947
  0
LINE
  8
画層3
  6
DOT
 10
176.52775612556
 20
94.4773496367947
 11
176.52775612556
 21
93.4773496367947
  0
LINE
  8
画層3
  6
DOT
 10
177.62775612556
 20
94.4773496367947
 11
177.62775612556
 21
95.4773496367947
  0
LINE
  8
画層3
  6
DOT
 10
179.92775612556
 20
94.4773496367947
 11
179.92775612556
 21
95.4773496367947
  0
LINE
  8
画層3
  6
DASHDOT
 10
163.12775612556
 20
96.7573496367948
 11
163.12775612556
 21
91.4273496367948
  0
LINE
  8
画層3
  6
DASHDOT
 10
165.32775612556
 20
96.8223496367948
 11
165.32775612556
 21
91.2973496367948
  0
LINE
  8
画層3
  6
DASHDOT
 10
167.52775612556
 20
96.8223496367948
 11
167.52775612556
 21
91.8173496367948
  0
LINE
  8
画層3
  6
DASHDOT
 10
169.72775612556
 20
97.1473496367948
 11
169.72775612556
 21
91.4273496367948
  0
LINE
  8
画層3
  6
DASHDOT
 10
171.92775612556
 20
97.2773496367948
 11
171.92775612556
 21
92.4673496367948
  0
LINE
  8
画層3
  6
DASHDOT
 10
174.12775612556
 20
96.8495435923903
 11
174.12775612556
 21
91.4923496367948
  0
LINE
  8
画層3
  6
DASHDOT
 10
178.77775612556
 20
98.4773496367947
 11
178.77775612556
 21
91.2323496367948
  0
LINE
  8
画層3
  6
DASHDOT
 10
183.42775612556
 20
96.9180760736269
 11
183.42775612556
 21
91.9473496367948
  0
LINE
  8
画層3
  6
DASHDOT
 10
185.62775612556
 20
96.5623496367948
 11
185.62775612556
 21
92.2723496367948
  0
LINE
  8
画層3
  6
DASHDOT
 10
187.82775612556
 20
96.9523496367948
 11
187.82775612556
 21
92.3373496367948
  0
LINE
  8
画層3
  6
DASHDOT
 10
190.02775612556
 20
96.4973496367948
 11
190.02775612556
 21
92.0773496367948
  0
LINE
  8
画層3
  6
DASHDOT
 10
192.22775612556
 20
96.8873496367948
 11
192.22775612556
 21
92.2073496367948
  0
LINE
  8
画層3
  6
DASHDOT
 10
194.42775612556
 20
96.6923496367948
 11
194.42775612556
 21
92.3373496367948
  0
LINE
  8
画層3
  6
CONTINUOUS
 10
150.77775612556
 20
105.077349636795
 11
150.77775612556
 21
121.877349636795
  0
LINE
  8
画層3
  6
CONTINUOUS
 10
148.77775612556
 20
121.877349636795
 11
148.77775612556
 21
105.077349636795
  0
LINE
  8
画層3
  6
CONTINUOUS
 10
152.77775612556
 20
110.127349636795
 11
152.77775612556
 21
116.827349636795
  0
LINE
  8
画層3
  6
CONTINUOUS
 10
152.77775612556
 20
116.827349636795
 11
150.77775612556
 21
116.827349636795
  0
LINE
  8
画層3
  6
CONTINUOUS
 10
150.77775612556
 20
116.827349636795
 11
150.77775612556
 21
110.127349636795
  0
LINE
  8
画層3
  6
CONTINUOUS
 10
150.77775612556
 20
110.127349636795
 11
152.77775612556
 21
110.127349636795
  0
LINE
  8
画層3
  6
DOT
 10
150.77775612556
 20
111.427349636795
 11
152.77775612556
 21
111.427349636795
  0
LINE
  8
画層3
  6
DOT
 10
150.77775612556
 20
115.527349636795
 11
152.77775612556
 21
115.527349636795
  0
LINE
  8
画層3
  6
DOT
 10
150.77775612556
 20
115.527349636795
 11
150.77775612556
 21
111.427349636795
  0
LINE
  8
画層3
  6
DOT
 10
148.77775612556
 20
111.227349636795
 11
149.77775612556
 21
111.227349636795
  0
LINE
  8
画層3
  6
DOT
 10
149.77775612556
 20
111.227349636795
 11
149.77775612556
 21
115.727349636795
  0
LINE
  8
画層3
  6
DOT
 10
149.77775612556
 20
115.727349636795
 11
148.77775612556
 21
115.727349636795
  0
LINE
  8
画層3
  6
DOT
 10
149.77775612556
 20
114.627349636795
 11
150.77775612556
 21
114.627349636795
  0
LINE
  8
画層3
  6
DOT
 10
149.77775612556
 20
112.327349636795
 11
150.77775612556
 21
112.327349636795
  0
LINE
  8
画層3
  6
DASHDOT
 10
153.77775612556
 20
113.477349636795
 11
146.53275612556
 21
113.477349636795
  0
LINE
  8
画層3
  6
CONTINUOUS
 10
148.77775612556
 20
121.877349636795
 11
150.77775612556
 21
121.877349636795
  0
LINE
  8
画層3
  6
CONTINUOUS
 10
148.77775612556
 20
115.227349636795
 11
150.77775612556
 21
115.227349636795
  0
LINE
  8
画層3
  6
CONTINUOUS
 10
148.77775612556
 20
111.727349636795
 11
150.77775612556
 21
111.727349636795
  0
LINE
  8
画層3
  6
CONTINUOUS
 10
148.77775612556
 20
105.077349636795
 11
150.77775612556
 21
105.077349636795
  0
LINE
  8
画層3
  6
DASHDOT
 10
147.338344947263
 20
120.027349636795
 11
152.343344947263
 21
120.027349636795
  0
LINE
  8
画層3
  6
DASHDOT
 10
147.598344947263
 20
117.827349636795
 11
151.953344947263
 21
117.827349636795
  0
LINE
  8
画層3
  6
DASHDOT
 10
147.338344947263
 20
109.127349636795
 11
153.548516039914
 21
109.127349636795
  0
LINE
  8
画層3
  6
DASHDOT
 10
147.468344947263
 20
106.927349636795
 11
153.318344947263
 21
106.927349636795
  0
LINE
  8
画層3
  6
CONTINUOUS
 10
148.77775612556
 20
116.877349636795
 11
150.77775612556
 21
116.877349636795
  0
LINE
  8
画層3
  6
CONTINUOUS
 10
150.77775612556
 20
110.077349636795
 11
148.77775612556
 21
110.077349636795
  0
CIRCLE
  8
画層3
  6
CONTINUOUS
 10
178.77775612556
 20
148.477349636795
 40
3.35
  0
CIRCLE
  8
画層3
  6
CONTINUOUS
 10
178.77775612556
 20
148.477349636795
 40
2.05
  0
ARC
  8
画層3
  6
CONTINUOUS
 10
193.32775612556
 20
148.477349636795
 40
1.75
 50
-90
 51
90
  0
CIRCLE
  8
画層3
  6
CONTINUOUS
 10
193.32775612556
 20
148.477349636795
 40
0.5
  0
LINE
  8
画層3
  6
DASHDOT
 10
193.32775612556
 20
146.277349636795
 11
193.32775612556
 21
150.677349636795
  0
LINE
  8
画層3
  6
DASHDOT
 10
158.77775612556
 20
148.477349636795
 11
198.77775612556
 21
148.477349636795
  0
LINE
  8
画層3
  6
DASHDOT
 10
178.77775612556
 20
138.477349636795
 11
178.77775612556
 21
158.477349636795
  0
LINE
  8
画層3
  6
CONTINUOUS
 10
195.07775612556
 20
130.477349636795
 11
162.47775612556
 21
130.477349636795
  0
LINE
  8
画層3
  6
CONTINUOUS
 10
162.47775612556
 20
128.477349636795
 11
195.07775612556
 21
128.477349636795
  0
POLYLINE
  8
画層3
  6
CONTINUOUS
 10
0.0
 20
0.0
 30
0.0
 66
1
 70
     1
  0
VERTEX
  8
画層3
 10
182.12775612556
  20
132.477349636795
  0
VERTEX
  8
画層3
 10
175.42775612556
  20
132.477349636795
  0
VERTEX
  8
画層3
 10
175.42775612556
  20
130.477349636795
  0
VERTEX
  8
画層3
 10
182.12775612556
  20
130.477349636795
  0
SEQEND
100
AcDbEntity
  8
画層3
  0
LINE
  8
画層3
  6
DOT
 10
180.82775612556
 20
130.477349636795
 11
180.82775612556
 21
132.477349636795
  0
LINE
  8
画層3
  6
DOT
 10
176.72775612556
 20
130.477349636795
 11
176.72775612556
 21
132.477349636795
  0
LINE
  8
画層3
  6
DOT
 10
176.72775612556
 20
130.477349636795
 11
180.82775612556
 21
130.477349636795
  0
CIRCLE
  8
画層3
  6
CONTINUOUS
 10
178.77775612556
 20
148.477349636795
 40
1.15
  0
LINE
  8
画層3
  6
DOT
 10
181.02775612556
 20
128.477349636795
 11
181.02775612556
 21
129.477349636795
  0
LINE
  8
画層3
  6
DOT
 10
181.02775612556
 20
129.477349636795
 11
176.52775612556
 21
129.477349636795
  0
LINE
  8
画層3
  6
DOT
 10
176.52775612556
 20
129.477349636795
 11
176.52775612556
 21
128.477349636795
  0
LINE
  8
画層3
  6
DOT
 10
177.62775612556
 20
129.477349636795
 11
177.62775612556
 21
130.477349636795
  0
LINE
  8
画層3
  6
DOT
 10
179.92775612556
 20
129.477349636795
 11
179.92775612556
 21
130.477349636795
  0
LINE
  8
画層3
  6
DASHDOT
 10
178.77775612556
 20
133.477349636795
 11
178.77775612556
 21
126.232349636795
  0
LINE
  8
画層3
  6
CONTINUOUS
 10
148.77775612556
 20
151.827349636795
 11
148.77775612556
 21
145.127349636795
  0
LINE
  8
画層3
  6
CONTINUOUS
 10
152.77775612556
 20
145.127349636795
 11
152.77775612556
 21
151.827349636795
  0
LINE
  8
画層3
  6
CONTINUOUS
 10
152.77775612556
 20
151.827349636795
 11
148.77775612556
 21
151.827349636795
  0
LINE
  8
画層3
  6
CONTINUOUS
 10
150.77775612556
 20
151.827349636795
 11
150.77775612556
 21
145.127349636795
  0
LINE
  8
画層3
  6
CONTINUOUS
 10
148.77775612556
 20
145.127349636795
 11
152.77775612556
 21
145.127349636795
  0
LINE
  8
画層3
  6
DOT
 10
150.77775612556
 20
146.427349636795
 11
152.77775612556
 21
146.427349636795
  0
LINE
  8
画層3
  6
DOT
 10
150.77775612556
 20
150.527349636795
 11
152.77775612556
 21
150.527349636795
  0
LINE
  8
画層3
  6
DOT
 10
150.77775612556
 20
150.527349636795
 11
150.77775612556
 21
146.427349636795
  0
LINE
  8
画層3
  6
DOT
 10
148.77775612556
 20
146.227349636795
 11
149.77775612556
 21
146.227349636795
  0
LINE
  8
画層3
  6
DOT
 10
149.77775612556
 20
146.227349636795
 11
149.77775612556
 21
150.727349636795
  0
LINE
  8
画層3
  6
DOT
 10
149.77775612556
 20
150.727349636795
 11
148.77775612556
 21
150.727349636795
  0
LINE
  8
画層3
  6
DOT
 10
149.77775612556
 20
149.627349636795
 11
150.77775612556
 21
149.627349636795
  0
LINE
  8
画層3
  6
DOT
 10
149.77775612556
 20
147.327349636795
 11
150.77775612556
 21
147.327349636795
  0
LINE
  8
画層3
  6
DASHDOT
 10
153.77775612556
 20
148.477349636795
 11
146.53275612556
 21
148.477349636795
  0
LINE
  8
画層3
  6
CONTINUOUS
 10
148.77775612556
 20
150.227349636795
 11
150.77775612556
 21
150.227349636795
  0
LINE
  8
画層3
  6
CONTINUOUS
 10
148.77775612556
 20
146.727349636795
 11
150.77775612556
 21
146.727349636795
  0
LINE
  8
画層3
  6
CONTINUOUS
 10
179.505722988637
 20
151.7472982979
 11
193.32775612556
 21
150.227349636795
  0
LINE
  8
画層3
  6
CONTINUOUS
 10
193.32775612556
 20
146.727349636795
 11
179.505722988636
 21
145.20740097569
  0
CIRCLE
  8
画層3
  6
CONTINUOUS
 10
191.32775612556
 20
148.477349636795
 40
0.5
  0
CIRCLE
  8
画層3
  6
CONTINUOUS
 10
189.32775612556
 20
148.477349636795
 40
0.5
  0
CIRCLE
  8
画層3
  6
CONTINUOUS
 10
187.32775612556
 20
148.477349636795
 40
0.5
  0
CIRCLE
  8
画層3
  6
CONTINUOUS
 10
185.32775612556
 20
148.477349636795
 40
0.5
  0
CIRCLE
  8
画層3
  6
CONTINUOUS
 10
183.32775612556
 20
148.477349636795
 40
0.5
  0
LINE
  8
画層3
  6
DASHDOT
 10
191.32775612556
 20
146.277349636795
 11
191.32775612556
 21
150.677349636795
  0
LINE
  8
画層3
  6
DASHDOT
 10
189.32775612556
 20
146.277349636795
 11
189.32775612556
 21
150.677349636795
  0
LINE
  8
画層3
  6
DASHDOT
 10
187.32775612556
 20
146.277349636795
 11
187.32775612556
 21
150.677349636795
  0
LINE
  8
画層3
  6
DASHDOT
 10
185.32775612556
 20
146.277349636795
 11
185.32775612556
 21
150.677349636795
  0
LINE
  8
画層3
  6
DASHDOT
 10
183.32775612556
 20
146.277349636795
 11
183.32775612556
 21
150.677349636795
  0
ARC
  8
画層3
  6
CONTINUOUS
 10
164.22775612556
 20
148.477349636795
 40
1.75
 50
90
 51
-90
  0
CIRCLE
  8
画層3
  6
CONTINUOUS
 10
164.22775612556
 20
148.477349636795
 40
0.5
  0
LINE
  8
画層3
  6
DASHDOT
 10
164.22775612556
 20
146.277349636795
 11
164.22775612556
 21
150.677349636795
  0
LINE
  8
画層3
  6
CONTINUOUS
 10
178.049789262483
 20
151.7472982979
 11
164.22775612556
 21
150.227349636795
  0
LINE
  8
画層3
  6
CONTINUOUS
 10
164.22775612556
 20
146.727349636795
 11
178.049789262483
 21
145.20740097569
  0
CIRCLE
  8
画層3
  6
CONTINUOUS
 10
166.22775612556
 20
148.477349636795
 40
0.5
  0
CIRCLE
  8
画層3
  6
CONTINUOUS
 10
168.22775612556
 20
148.477349636795
 40
0.5
  0
CIRCLE
  8
画層3
  6
CONTINUOUS
 10
170.22775612556
 20
148.477349636795
 40
0.5
  0
CIRCLE
  8
画層3
  6
CONTINUOUS
 10
172.22775612556
 20
148.477349636795
 40
0.5
  0
CIRCLE
  8
画層3
  6
CONTINUOUS
 10
174.22775612556
 20
148.477349636795
 40
0.5
  0
LINE
  8
画層3
  6
DASHDOT
 10
166.22775612556
 20
146.277349636795
 11
166.22775612556
 21
150.677349636795
  0
LINE
  8
画層3
  6
DASHDOT
 10
168.22775612556
 20
146.277349636795
 11
168.22775612556
 21
150.677349636795
  0
LINE
  8
画層3
  6
DASHDOT
 10
170.22775612556
 20
146.277349636795
 11
170.22775612556
 21
150.677349636795
  0
LINE
  8
画層3
  6
DASHDOT
 10
172.22775612556
 20
146.277349636795
 11
172.22775612556
 21
150.677349636795
  0
LINE
  8
画層3
  6
DASHDOT
 10
174.22775612556
 20
146.277349636795
 11
174.22775612556
 21
150.677349636795
  0
LINE
  8
画層3
  6
CONTINUOUS
 10
195.07775612556
 20
128.477349636795
 11
195.07775612556
 21
130.477349636795
  0
LINE
  8
画層3
  6
CONTINUOUS
 10
162.47775612556
 20
128.477349636795
 11
162.47775612556
 21
130.477349636795
  0
LINE
  8
画層3
  6
DASHDOT
 10
193.32775612556
 20
132.092349636795
 11
193.32775612556
 21
126.762285544013
  0
LINE
  8
画層3
  6
DASHDOT
 10
191.32775612556
 20
131.832349636795
 11
191.32775612556
 21
126.045302853817
  0
LINE
  8
画層3
  6
DASHDOT
 10
189.32775612556
 20
131.767349636795
 11
189.32775612556
 21
126.230325216935
  0
LINE
  8
画層3
  6
DASHDOT
 10
187.32775612556
 20
132.287349636795
 11
187.32775612556
 21
126.82734883384
  0
LINE
  8
画層3
  6
DASHDOT
 10
185.32775612556
 20
132.287349636795
 11
185.32775612556
 21
126.741580257889
  0
LINE
  8
画層3
  6
DASHDOT
 10
183.32775612556
 20
132.092349636795
 11
183.32775612556
 21
126.620123838589
  0
LINE
  8
画層3
  6
DASHDOT
 10
174.22775612556
 20
131.767349636795
 11
174.22775612556
 21
126.412193641855
  0
LINE
  8
画層3
  6
DASHDOT
 10
172.22775612556
 20
131.767349636795
 11
172.22775612556
 21
126.611748173988
  0
LINE
  8
画層3
  6
DASHDOT
 10
170.22775612556
 20
131.897349636795
 11
170.22775612556
 21
127.217349636795
  0
LINE
  8
画層3
  6
DASHDOT
 10
168.22775612556
 20
132.157349636795
 11
168.22775612556
 21
127.130932690346
  0
LINE
  8
画層3
  6
DASHDOT
 10
166.22775612556
 20
131.702349636795
 11
166.22775612556
 21
126.882216111921
  0
LINE
  8
画層3
  6
DASHDOT
 10
164.22775612556
 20
131.702349636795
 11
164.22775612556
 21
126.957349636795
  0
LINE
  8
画層3
  6
CONTINUOUS
 10
150.77775612556
 20
145.127349636795
 11
150.77775612556
 21
151.827349636795
  0
CIRCLE
  8
画層3
  6
CONTINUOUS
 10
178.77775612556
 20
183.477349636795
 40
3.35
  0
CIRCLE
  8
画層3
  6
CONTINUOUS
 10
178.77775612556
 20
183.477349636795
 40
2.05
  0
LINE
  8
画層3
  6
DASHDOT
 10
158.77775612556
 20
183.477349636795
 11
198.77775612556
 21
183.477349636795
  0
LINE
  8
画層3
  6
DASHDOT
 10
178.77775612556
 20
173.477349636795
 11
178.77775612556
 21
193.477349636795
  0
LINE
  8
画層3
  6
CONTINUOUS
 10
162.47775612556
 20
163.477349636795
 11
182.12775612556
 21
163.477349636795
  0
LINE
  8
画層3
  6
CONTINUOUS
 10
182.12775612556
 20
167.477349636795
 11
175.42775612556
 21
167.477349636795
  0
LINE
  8
画層3
  6
CONTINUOUS
 10
175.42775612556
 20
167.477349636795
 11
175.42775612556
 21
165.477349636795
  0
LINE
  8
画層3
  6
CONTINUOUS
 10
175.42775612556
 20
165.477349636795
 11
182.12775612556
 21
165.477349636795
  0
LINE
  8
画層3
  6
CONTINUOUS
 10
182.12775612556
 20
163.477349636795
 11
182.12775612556
 21
167.477349636795
  0
LINE
  8
画層3
  6
DOT
 10
180.82775612556
 20
165.477349636795
 11
180.82775612556
 21
167.477349636795
  0
LINE
  8
画層3
  6
DOT
 10
176.72775612556
 20
165.477349636795
 11
176.72775612556
 21
167.477349636795
  0
LINE
  8
画層3
  6
DOT
 10
176.72775612556
 20
165.477349636795
 11
180.82775612556
 21
165.477349636795
  0
CIRCLE
  8
画層3
  6
CONTINUOUS
 10
178.77775612556
 20
183.477349636795
 40
1.15
  0
LINE
  8
画層3
  6
DOT
 10
181.02775612556
 20
163.477349636795
 11
181.02775612556
 21
164.477349636795
  0
LINE
  8
画層3
  6
DOT
 10
181.02775612556
 20
164.477349636795
 11
176.52775612556
 21
164.477349636795
  0
LINE
  8
画層3
  6
DOT
 10
176.52775612556
 20
164.477349636795
 11
176.52775612556
 21
163.477349636795
  0
LINE
  8
画層3
  6
DOT
 10
177.62775612556
 20
164.477349636795
 11
177.62775612556
 21
165.477349636795
  0
LINE
  8
画層3
  6
DOT
 10
179.92775612556
 20
164.477349636795
 11
179.92775612556
 21
165.477349636795
  0
LINE
  8
画層3
  6
DASHDOT
 10
178.77775612556
 20
168.477349636795
 11
178.77775612556
 21
161.232349636795
  0
LINE
  8
画層3
  6
CONTINUOUS
 10
148.77775612556
 20
186.827349636795
 11
148.77775612556
 21
180.127349636795
  0
LINE
  8
画層3
  6
CONTINUOUS
 10
152.77775612556
 20
180.127349636795
 11
152.77775612556
 21
186.827349636795
  0
LINE
  8
画層3
  6
CONTINUOUS
 10
152.77775612556
 20
186.827349636795
 11
148.77775612556
 21
186.827349636795
  0
LINE
  8
画層3
  6
CONTINUOUS
 10
150.77775612556
 20
186.827349636795
 11
150.77775612556
 21
180.127349636795
  0
LINE
  8
画層3
  6
CONTINUOUS
 10
148.77775612556
 20
180.127349636795
 11
152.77775612556
 21
180.127349636795
  0
LINE
  8
画層3
  6
DOT
 10
150.77775612556
 20
181.427349636795
 11
152.77775612556
 21
181.427349636795
  0
LINE
  8
画層3
  6
DOT
 10
150.77775612556
 20
185.527349636795
 11
152.77775612556
 21
185.527349636795
  0
LINE
  8
画層3
  6
DOT
 10
150.77775612556
 20
185.527349636795
 11
150.77775612556
 21
181.427349636795
  0
LINE
  8
画層3
  6
DOT
 10
148.77775612556
 20
181.227349636795
 11
149.77775612556
 21
181.227349636795
  0
LINE
  8
画層3
  6
DOT
 10
149.77775612556
 20
181.227349636795
 11
149.77775612556
 21
185.727349636795
  0
LINE
  8
画層3
  6
DOT
 10
149.77775612556
 20
185.727349636795
 11
148.77775612556
 21
185.727349636795
  0
LINE
  8
画層3
  6
DOT
 10
149.77775612556
 20
184.627349636795
 11
150.77775612556
 21
184.627349636795
  0
LINE
  8
画層3
  6
DOT
 10
149.77775612556
 20
182.327349636795
 11
150.77775612556
 21
182.327349636795
  0
LINE
  8
画層3
  6
DASHDOT
 10
153.77775612556
 20
183.477349636795
 11
146.53275612556
 21
183.477349636795
  0
LINE
  8
画層3
  6
CONTINUOUS
 10
148.77775612556
 20
185.227349636795
 11
150.77775612556
 21
185.227349636795
  0
LINE
  8
画層3
  6
CONTINUOUS
 10
148.77775612556
 20
181.727349636795
 11
150.77775612556
 21
181.727349636795
  0
ARC
  8
画層3
  6
CONTINUOUS
 10
164.22775612556
 20
183.477349636795
 40
1.75
 50
90
 51
-90
  0
CIRCLE
  8
画層3
  6
CONTINUOUS
 10
164.22775612556
 20
183.477349636795
 40
0.5
  0
LINE
  8
画層3
  6
DASHDOT
 10
164.22775612556
 20
181.277349636795
 11
164.22775612556
 21
185.677349636795
  0
LINE
  8
画層3
  6
CONTINUOUS
 10
178.049789262483
 20
186.7472982979
 11
164.22775612556
 21
185.227349636795
  0
LINE
  8
画層3
  6
CONTINUOUS
 10
164.22775612556
 20
181.727349636795
 11
178.049789262483
 21
180.20740097569
  0
CIRCLE
  8
画層3
  6
CONTINUOUS
 10
166.22775612556
 20
183.477349636795
 40
0.5
  0
CIRCLE
  8
画層3
  6
CONTINUOUS
 10
168.22775612556
 20
183.477349636795
 40
0.5
  0
CIRCLE
  8
画層3
  6
CONTINUOUS
 10
170.22775612556
 20
183.477349636795
 40
0.5
  0
CIRCLE
  8
画層3
  6
CONTINUOUS
 10
172.22775612556
 20
183.477349636795
 40
0.5
  0
CIRCLE
  8
画層3
  6
CONTINUOUS
 10
174.22775612556
 20
183.477349636795
 40
0.5
  0
LINE
  8
画層3
  6
DASHDOT
 10
166.22775612556
 20
181.277349636795
 11
166.22775612556
 21
185.677349636795
  0
LINE
  8
画層3
  6
DASHDOT
 10
168.22775612556
 20
181.277349636795
 11
168.22775612556
 21
185.677349636795
  0
LINE
  8
画層3
  6
DASHDOT
 10
170.22775612556
 20
181.277349636795
 11
170.22775612556
 21
185.677349636795
  0
LINE
  8
画層3
  6
DASHDOT
 10
172.22775612556
 20
181.277349636795
 11
172.22775612556
 21
185.677349636795
  0
LINE
  8
画層3
  6
DASHDOT
 10
174.22775612556
 20
181.277349636795
 11
174.22775612556
 21
185.677349636795
  0
LINE
  8
画層3
  6
CONTINUOUS
 10
162.47775612556
 20
163.477349636795
 11
162.47775612556
 21
165.477349636795
  0
LINE
  8
画層3
  6
DASHDOT
 10
174.22775612556
 20
166.767349636795
 11
174.22775612556
 21
161.412193641855
  0
LINE
  8
画層3
  6
DASHDOT
 10
172.22775612556
 20
166.767349636795
 11
172.22775612556
 21
161.611748173988
  0
LINE
  8
画層3
  6
DASHDOT
 10
170.22775612556
 20
166.897349636795
 11
170.22775612556
 21
162.217349636795
  0
LINE
  8
画層3
  6
DASHDOT
 10
168.22775612556
 20
167.157349636795
 11
168.22775612556
 21
162.130932690346
  0
LINE
  8
画層3
  6
DASHDOT
 10
166.22775612556
 20
166.702349636795
 11
166.22775612556
 21
161.882216111921
  0
LINE
  8
画層3
  6
DASHDOT
 10
164.22775612556
 20
166.702349636795
 11
164.22775612556
 21
161.957349636795
  0
LINE
  8
画層3
  6
CONTINUOUS
 10
150.77775612556
 20
180.127349636795
 11
150.77775612556
 21
186.827349636795
  0
LINE
  8
画層3
  6
CONTINUOUS
 10
182.12775612556
 20
165.477349636795
 11
162.47775612556
 21
165.477349636795
  0
LINE
  8
画層0
  6
CONTINUOUS
 10
188.77775612556
 20
178.477349636795
 11
188.77775612556
 21
188.477349636795
  0
LINE
  8
画層1
  6
DASHDOT
 10
229.358599690508
 20
176.598560437916
 11
236.262499690508
 21
176.598560437916
  0
LINE
  8
画層1
  6
CONTINUOUS
 10
233.040679690508
 20
177.979340437916
 11
232.580419690508
 21
177.979340437916
  0
LINE
  8
画層1
  6
CONTINUOUS
 10
232.580419690508
 20
177.979340437916
 11
232.580419690508
 21
176.828690437916
  0
LINE
  8
画層1
  6
CONTINUOUS
 10
232.580419690508
 20
176.828690437916
 11
231.429769690508
 21
176.828690437916
  0
LINE
  8
画層1
  6
CONTINUOUS
 10
231.429769690508
 20
176.828690437916
 11
231.429769690508
 21
176.368430437916
  0
LINE
  8
画層1
  6
CONTINUOUS
 10
231.429769690508
 20
176.368430437916
 11
232.580419690508
 21
176.368430437916
  0
LINE
  8
画層1
  6
CONTINUOUS
 10
232.580419690508
 20
176.368430437916
 11
232.580419690508
 21
175.217780437916
  0
LINE
  8
画層1
  6
CONTINUOUS
 10
232.580419690508
 20
175.217780437916
 11
233.040679690508
 21
175.217780437916
  0
LINE
  8
画層1
  6
CONTINUOUS
 10
233.040679690508
 20
175.217780437916
 11
233.040679690508
 21
176.368430437916
  0
LINE
  8
画層1
  6
CONTINUOUS
 10
233.040679690508
 20
176.368430437916
 11
234.191329690508
 21
176.368430437916
  0
LINE
  8
画層1
  6
CONTINUOUS
 10
234.191329690508
 20
176.368430437916
 11
234.191329690508
 21
176.828690437916
  0
LINE
  8
画層1
  6
CONTINUOUS
 10
234.191329690508
 20
176.828690437916
 11
233.040679690508
 21
176.828690437916
  0
LINE
  8
画層1
  6
CONTINUOUS
 10
233.040679690508
 20
176.828690437916
 11
233.040679690508
 21
177.979340437916
  0
CIRCLE
  8
画層1
  6
CONTINUOUS
 10
232.810549690508
 20
176.598560437916
 40
2.109525
  0
LINE
  8
画層1
  6
DASHDOT
 10
238.761540743393
 20
176.598560437916
 11
246.803571786849
 21
176.598560437916
  0
LINE
  8
画層1
  6
CONTINUOUS
 10
240.169899800089
 20
174.489035437916
 11
240.820191786849
 21
174.489035437916
  0
LINE
  8
画層1
  6
CONTINUOUS
 10
240.820191786849
 20
178.708085437916
 11
240.169899800089
 21
178.708085437916
  0
ARC
  8
画層1
  6
CONTINUOUS
 10
240.169899800089
 20
177.940985437916
 40
0.7671
 50
90.0000000000004
 51
157.237106977891
  0
ARC
  8
画層1
  6
CONTINUOUS
 10
240.169899800089
 20
175.256135437916
 40
0.7671
 50
202.76289302211
 51
270
  0
ARC
  8
画層1
  6
CONTINUOUS
 10
243.369201161849
 20
176.598560437916
 40
4.236629375
 50
199.021003994572
 51
202.76289302211
  0
ARC
  8
画層1
  6
CONTINUOUS
 10
243.369201161849
 20
176.598560437916
 40
4.236629375
 50
157.237106977891
 51
160.978996005429
  0
LINE
  8
画層1
  6
CONTINUOUS
 10
240.820191786849
 20
176.598560437916
 11
240.820191786849
 21
178.848560437916
  0
LINE
  8
画層1
  6
CONTINUOUS
 10
240.820191786849
 20
174.348560437916
 11
240.820191786849
 21
176.598560437916
  0
LINE
  8
画層1
  6
CONTINUOUS
 10
241.050321786849
 20
176.598560437916
 11
241.050321786849
 21
178.848560437916
  0
LINE
  8
画層1
  6
CONTINUOUS
 10
241.050321786849
 20
174.348560437916
 11
241.050321786849
 21
176.598560437916
  0
LINE
  8
画層1
  6
CONTINUOUS
 10
239.37051197215
 20
177.979340437916
 11
239.363895299282
 21
177.979340437916
  0
LINE
  8
画層1
  6
CONTINUOUS
 10
239.363895299282
 20
175.217780437916
 11
239.37051197215
 21
175.217780437916
  0
ARC
  8
画層1
  6
CONTINUOUS
 10
243.369201161849
 20
176.598560437916
 40
4.23037452765271
 50
183.118397584843
 51
199.050211032251
  0
LINE
  8
画層1
  6
CONTINUOUS
 10
239.145090743393
 20
176.368430437916
 11
239.37051197215
 21
176.368430437916
  0
ARC
  8
画層1
  6
CONTINUOUS
 10
243.369201161849
 20
176.598560437916
 40
4.00530586256691
 50
176.706183324098
 51
183.293816675903
  0
LINE
  8
画層1
  6
CONTINUOUS
 10
239.37051197215
 20
176.828690437916
 11
239.145090743393
 21
176.828690437916
  0
ARC
  8
画層1
  6
CONTINUOUS
 10
243.369201161849
 20
176.598560437916
 40
4.23037452765271
 50
160.94978896775
 51
176.881602415158
  0
LINE
  8
画層1
  6
CONTINUOUS
 10
241.050321786849
 20
177.748560437916
 11
243.27397619012
 21
177.748560437916
  0
LINE
  8
画層1
  6
CONTINUOUS
 10
243.27397619012
 20
177.748560437916
 11
246.050321786849
 21
176.598560437916
  0
LINE
  8
画層1
  6
CONTINUOUS
 10
246.050321786849
 20
176.598560437916
 11
243.27397619012
 21
175.448560437916
  0
LINE
  8
画層1
  6
CONTINUOUS
 10
243.27397619012
 20
175.448560437916
 11
241.050321786849
 21
175.448560437916
  0
LINE
  8
画層1
  6
CONTINUOUS
 10
241.050321786849
 20
177.398560437916
 11
244.118950936951
 21
177.398560437916
  0
LINE
  8
画層1
  6
CONTINUOUS
 10
241.050321786849
 20
175.798560437916
 11
244.118950936951
 21
175.798560437916
  0
LINE
  8
画層1
  6
DASHDOT
 10
232.747736997071
 20
162.395510437916
 11
232.747736997071
 21
155.491610437916
  0
LINE
  8
画層1
  6
DASHDOT
 10
229.295786997071
 20
158.943560437916
 11
236.199686997071
 21
158.943560437916
  0
LINE
  8
画層1
  6
CONTINUOUS
 10
232.977866997071
 20
160.324340437916
 11
232.517606997071
 21
160.324340437916
  0
LINE
  8
画層1
  6
CONTINUOUS
 10
232.517606997071
 20
160.324340437916
 11
232.517606997071
 21
159.173690437916
  0
LINE
  8
画層1
  6
CONTINUOUS
 10
232.517606997071
 20
159.173690437916
 11
231.366956997071
 21
159.173690437916
  0
LINE
  8
画層1
  6
CONTINUOUS
 10
231.366956997071
 20
159.173690437916
 11
231.366956997071
 21
158.713430437916
  0
LINE
  8
画層1
  6
CONTINUOUS
 10
231.366956997071
 20
158.713430437916
 11
232.517606997071
 21
158.713430437916
  0
LINE
  8
画層1
  6
CONTINUOUS
 10
232.517606997071
 20
158.713430437916
 11
232.517606997071
 21
157.562780437916
  0
LINE
  8
画層1
  6
CONTINUOUS
 10
232.517606997071
 20
157.562780437916
 11
232.977866997071
 21
157.562780437916
  0
LINE
  8
画層1
  6
CONTINUOUS
 10
232.977866997071
 20
157.562780437916
 11
232.977866997071
 21
158.713430437916
  0
LINE
  8
画層1
  6
CONTINUOUS
 10
232.977866997071
 20
158.713430437916
 11
234.128516997071
 21
158.713430437916
  0
LINE
  8
画層1
  6
CONTINUOUS
 10
234.128516997071
 20
158.713430437916
 11
234.128516997071
 21
159.173690437916
  0
LINE
  8
画層1
  6
CONTINUOUS
 10
234.128516997071
 20
159.173690437916
 11
232.977866997071
 21
159.173690437916
  0
LINE
  8
画層1
  6
CONTINUOUS
 10
232.977866997071
 20
159.173690437916
 11
232.977866997071
 21
160.324340437916
  0
CIRCLE
  8
画層1
  6
CONTINUOUS
 10
232.747736997071
 20
158.943560437916
 40
2.109525
  0
LINE
  8
画層1
  6
DASHDOT
 10
238.698728049956
 20
158.943560437916
 11
251.403113648411
 21
158.943560437916
  0
LINE
  8
画層1
  6
CONTINUOUS
 10
240.107087106652
 20
156.834035437916
 11
240.757379093412
 21
156.834035437916
  0
LINE
  8
画層1
  6
CONTINUOUS
 10
240.757379093412
 20
161.053085437916
 11
240.107087106652
 21
161.053085437916
  0
ARC
  8
画層1
  6
CONTINUOUS
 10
240.107087106652
 20
160.285985437916
 40
0.7671
 50
90.0000000000004
 51
157.237106977891
  0
ARC
  8
画層1
  6
CONTINUOUS
 10
240.107087106652
 20
157.601135437916
 40
0.7671
 50
202.76289302211
 51
270
  0
ARC
  8
画層1
  6
CONTINUOUS
 10
243.306388468412
 20
158.943560437916
 40
4.236629375
 50
199.021003994572
 51
202.76289302211
  0
ARC
  8
画層1
  6
CONTINUOUS
 10
243.306388468412
 20
158.943560437916
 40
4.236629375
 50
157.237106977891
 51
160.978996005429
  0
LINE
  8
画層1
  6
CONTINUOUS
 10
240.757379093412
 20
158.943560437916
 11
240.757379093412
 21
161.943560437916
  0
LINE
  8
画層1
  6
CONTINUOUS
 10
240.757379093412
 20
155.943560437916
 11
240.757379093412
 21
158.943560437916
  0
LINE
  8
画層1
  6
CONTINUOUS
 10
240.987509093412
 20
158.943560437916
 11
240.987509093412
 21
161.943560437916
  0
LINE
  8
画層1
  6
CONTINUOUS
 10
240.987509093412
 20
155.943560437916
 11
240.987509093412
 21
158.943560437916
  0
LINE
  8
画層1
  6
CONTINUOUS
 10
239.307699278714
 20
160.324340437916
 11
239.301082605845
 21
160.324340437916
  0
LINE
  8
画層1
  6
CONTINUOUS
 10
239.301082605845
 20
157.562780437916
 11
239.307699278714
 21
157.562780437916
  0
ARC
  8
画層1
  6
CONTINUOUS
 10
243.306388468412
 20
158.943560437916
 40
4.23037452765271
 50
183.118397584843
 51
199.050211032251
  0
LINE
  8
画層1
  6
CONTINUOUS
 10
239.082278049956
 20
158.713430437916
 11
239.307699278714
 21
158.713430437916
  0
ARC
  8
画層1
  6
CONTINUOUS
 10
243.306388468412
 20
158.943560437916
 40
4.00530586256691
 50
176.706183324098
 51
183.293816675903
  0
LINE
  8
画層1
  6
CONTINUOUS
 10
239.307699278714
 20
159.173690437916
 11
239.082278049956
 21
159.173690437916
  0
ARC
  8
画層1
  6
CONTINUOUS
 10
243.306388468412
 20
158.943560437916
 40
4.23037452765271
 50
160.94978896775
 51
176.881602415158
  0
LINE
  8
画層1
  6
CONTINUOUS
 10
240.987509093412
 20
160.093560437916
 11
247.271455358252
 21
160.093560437916
  0
LINE
  8
画層1
  6
CONTINUOUS
 10
247.271455358252
 20
160.093560437916
 11
250.047800954981
 21
158.943560437916
  0
LINE
  8
画層1
  6
CONTINUOUS
 10
250.047800954981
 20
158.943560437916
 11
247.271455358252
 21
157.793560437916
  0
LINE
  8
画層1
  6
CONTINUOUS
 10
247.271455358252
 20
157.793560437916
 11
240.987509093412
 21
157.793560437916
  0
LINE
  8
画層1
  6
CONTINUOUS
 10
240.987509093412
 20
159.743560437916
 11
248.250613648418
 21
159.743560437916
  0
LINE
  8
画層1
  6
CONTINUOUS
 10
240.987509093412
 20
158.143560437916
 11
248.055613648418
 21
158.143560437916
  0
LINE
  8
画層1
  6
CONTINUOUS
 10
240.820191786849
 20
178.848560437916
 11
241.050321786849
 21
178.848560437916
  0
LINE
  8
画層1
  6
CONTINUOUS
 10
240.820191786849
 20
174.348560437916
 11
241.050321786849
 21
174.348560437916
  0
CIRCLE
  8
画層1
  6
CONTINUOUS
 10
232.810549690508
 20
176.598560437916
 40
2.25
  0
CIRCLE
  8
画層1
  6
CONTINUOUS
 10
232.747736997071
 20
158.943560437916
 40
3
  0
LINE
  8
画層1
  6
CONTINUOUS
 10
240.757379093412
 20
161.943560437916
 11
240.987509093412
 21
161.943560437916
  0
LINE
  8
画層1
  6
CONTINUOUS
 10
240.757379093412
 20
155.943560437916
 11
240.987509093412
 21
155.943560437916
  0
TEXT
  8
画層1
 62
96
  6
CONTINUOUS
 62
96
 10
257.561863648418
 20
174.644866851218
 40
4
  1
M2.3x5
  7
Font_0
 11
257.561863648418
 21
176.644866851218
 73
2
  0
TEXT
  8
画層1
 62
96
  6
CONTINUOUS
 62
96
 10
259.381863648418
 20
156.834866851218
 40
4
  1
M2.3x9
  7
Font_0
 11
259.381863648418
 21
158.834866851218
 73
2
  0
LINE
  8
画層4
  6
CONTINUOUS
 10
74
 20
177.4525
 11
74
 21
174.5
  0
LINE
  8
画層4
  6
CONTINUOUS
 10
74
 20
175
 11
80
 21
175
  0
POLYLINE
  8
画層4
  6
CONTINUOUS
 10
0.0
 20
0.0
 30
0.0
 66
1
 70
     1
  0
VERTEX
  8
画層4
 10
74
  20
175
  0
VERTEX
  8
画層4
 10
75.4488887394336
  20
175.388228567654
  0
VERTEX
  8
画層4
 10
75.4488887394336
  20
174.611771432346
  0
SEQEND
100
AcDbEntity
  8
画層4
  0
POLYLINE
  8
画層4
  6
CONTINUOUS
 10
0.0
 20
0.0
 30
0.0
 66
1
 70
     1
  0
VERTEX
  8
画層4
 10
80
  20
175
  0
VERTEX
  8
画層4
 10
78.5511112605664
  20
174.611771432346
  0
VERTEX
  8
画層4
 10
78.5511112605664
  20
175.388228567654
  0
SEQEND
100
AcDbEntity
  8
画層4
  0
TEXT
  8
画層4
 62
11
  6
CONTINUOUS
 62
11
 10
76
 20
175.25
 40
4
  1
6
  7
Font_0
 72
1
 11
77
 21
179.25
 73
3
  0
LINE
  8
画層4
  6
CONTINUOUS
 10
80
 20
177.0625
 11
80
 21
174.5
  0
LINE
  8
画層4
  6
CONTINUOUS
 10
68.5
 20
178.9375
 11
68.5
 21
169.5
  0
LINE
  8
画層4
  6
CONTINUOUS
 10
68.5
 20
170
 11
91.5
 21
170
  0
POLYLINE
  8
画層4
  6
CONTINUOUS
 10
0.0
 20
0.0
 30
0.0
 66
1
 70
     1
  0
VERTEX
  8
画層4
 10
68.5
  20
170
  0
VERTEX
  8
画層4
 10
69.9488887394336
  20
170.388228567654
  0
VERTEX
  8
画層4
 10
69.9488887394336
  20
169.611771432346
  0
SEQEND
100
AcDbEntity
  8
画層4
  0
POLYLINE
  8
画層4
  6
CONTINUOUS
 10
0.0
 20
0.0
 30
0.0
 66
1
 70
     1
  0
VERTEX
  8
画層4
 10
91.5
  20
170
  0
VERTEX
  8
画層4
 10
90.0511112605664
  20
169.611771432346
  0
VERTEX
  8
画層4
 10
90.0511112605664
  20
170.388228567654
  0
SEQEND
100
AcDbEntity
  8
画層4
  0
TEXT
  8
画層4
 62
11
  6
CONTINUOUS
 62
11
 10
77.75
 20
170.25
 40
4
  1
23
  7
Font_0
 72
1
 11
80
 21
174.25
 73
3
  0
LINE
  8
画層4
  6
CONTINUOUS
 10
91.5
 20
178.9375
 11
91.5
 21
169.5
  0
LINE
  8
画層4
  6
CONTINUOUS
 10
64
 20
179.2375
 11
64
 21
164.5
  0
LINE
  8
画層4
  6
CONTINUOUS
 10
64
 20
165
 11
96
 21
165
  0
POLYLINE
  8
画層4
  6
CONTINUOUS
 10
0.0
 20
0.0
 30
0.0
 66
1
 70
     1
  0
VERTEX
  8
画層4
 10
64
  20
165
  0
VERTEX
  8
画層4
 10
65.4488887394336
  20
165.388228567654
  0
VERTEX
  8
画層4
 10
65.4488887394336
  20
164.611771432346
  0
SEQEND
100
AcDbEntity
  8
画層4
  0
POLYLINE
  8
画層4
  6
CONTINUOUS
 10
0.0
 20
0.0
 30
0.0
 66
1
 70
     1
  0
VERTEX
  8
画層4
 10
96
  20
165
  0
VERTEX
  8
画層4
 10
94.5511112605664
  20
164.611771432346
  0
VERTEX
  8
画層4
 10
94.5511112605664
  20
165.388228567654
  0
SEQEND
100
AcDbEntity
  8
画層4
  0
TEXT
  8
画層4
 62
11
  6
CONTINUOUS
 62
11
 10
77.75
 20
165.25
 40
4
  1
32
  7
Font_0
 72
1
 11
80
 21
169.25
 73
3
  0
LINE
  8
画層4
  6
CONTINUOUS
 10
96
 20
179.2375
 11
96
 21
164.5
  0
LINE
  8
画層4
  6
CONTINUOUS
 10
63.75
 20
179.4875
 11
59.5
 21
179.4875
  0
LINE
  8
画層4
  6
CONTINUOUS
 10
60
 20
179.4875
 11
60
 21
190.8875
  0
POLYLINE
  8
画層4
  6
CONTINUOUS
 10
0.0
 20
0.0
 30
0.0
 66
1
 70
     1
  0
VERTEX
  8
画層4
 10
60
  20
179.4875
  0
VERTEX
  8
画層4
 10
59.6117714323462
  20
180.936388739434
  0
VERTEX
  8
画層4
 10
60.3882285676538
  20
180.936388739434
  0
SEQEND
100
AcDbEntity
  8
画層4
  0
POLYLINE
  8
画層4
  6
CONTINUOUS
 10
0.0
 20
0.0
 30
0.0
 66
1
 70
     1
  0
VERTEX
  8
画層4
 10
60
  20
190.8875
  0
VERTEX
  8
画層4
 10
60.3882285676538
  20
189.438611260566
  0
VERTEX
  8
画層4
 10
59.6117714323462
  20
189.438611260566
  0
SEQEND
100
AcDbEntity
  8
画層4
  0
TEXT
  8
画層4
 62
11
  6
CONTINUOUS
 62
11
 10
59.75
 20
180.4375
 40
4
  1
11.4
  7
Font_0
 50
90
 72
1
 11
55.75
 21
185.1875
 73
3
  0
LINE
  8
画層4
  6
CONTINUOUS
 10
63.75
 20
190.8875
 11
59.5
 21
190.8875
  0
LINE
  8
画層4
  6
CONTINUOUS
 10
91.25
 20
179.1875
 11
54.5
 21
179.1875
  0
LINE
  8
画層4
  6
CONTINUOUS
 10
55
 20
179.1875
 11
55
 21
191.1875
  0
POLYLINE
  8
画層4
  6
CONTINUOUS
 10
0.0
 20
0.0
 30
0.0
 66
1
 70
     1
  0
VERTEX
  8
画層4
 10
55
  20
179.1875
  0
VERTEX
  8
画層4
 10
54.6117714323462
  20
180.636388739434
  0
VERTEX
  8
画層4
 10
55.3882285676538
  20
180.636388739434
  0
SEQEND
100
AcDbEntity
  8
画層4
  0
POLYLINE
  8
画層4
  6
CONTINUOUS
 10
0.0
 20
0.0
 30
0.0
 66
1
 70
     1
  0
VERTEX
  8
画層4
 10
55
  20
191.1875
  0
VERTEX
  8
画層4
 10
55.3882285676538
  20
189.738611260566
  0
VERTEX
  8
画層4
 10
54.6117714323462
  20
189.738611260566
  0
SEQEND
100
AcDbEntity
  8
画層4
  0
TEXT
  8
画層4
 62
11
  6
CONTINUOUS
 62
11
 10
54.75
 20
182.9375
 40
4
  1
12
  7
Font_0
 50
90
 72
1
 11
50.75
 21
185.1875
 73
3
  0
LINE
  8
画層4
  6
CONTINUOUS
 10
91.25
 20
191.1875
 11
54.5
 21
191.1875
  0
LINE
  8
画層4
  6
CONTINUOUS
 10
72.38
 20
155.75
 11
72.38
 21
160.5
  0
LINE
  8
画層4
  6
CONTINUOUS
 10
72.38
 20
160
 11
75.58
 21
160
  0
POLYLINE
  8
画層4
  6
CONTINUOUS
 10
0.0
 20
0.0
 30
0.0
 66
1
 70
     1
  0
VERTEX
  8
画層4
 10
72.38
  20
160
  0
VERTEX
  8
画層4
 10
73.8288887394336
  20
160.388228567654
  0
VERTEX
  8
画層4
 10
73.8288887394336
  20
159.611771432346
  0
SEQEND
100
AcDbEntity
  8
画層4
  0
POLYLINE
  8
画層4
  6
CONTINUOUS
 10
0.0
 20
0.0
 30
0.0
 66
1
 70
     1
  0
VERTEX
  8
画層4
 10
75.58
  20
160
  0
VERTEX
  8
画層4
 10
74.1311112605664
  20
159.611771432346
  0
VERTEX
  8
画層4
 10
74.1311112605664
  20
160.388228567654
  0
SEQEND
100
AcDbEntity
  8
画層4
  0
TEXT
  8
画層4
 62
11
  6
CONTINUOUS
 62
11
 10
68.23
 20
160.25
 40
4
  1
%%c3.2
  7
Font_0
 72
1
 11
73.98
 21
164.25
 73
3
  0
LINE
  8
画層4
  6
CONTINUOUS
 10
75.58
 20
155.75
 11
75.58
 21
160.5
  0
LINE
  8
画層4
  6
CONTINUOUS
 10
92.7990677070148
 20
184.467943450683
 11
95.2009322929852
 21
185.907056549317
  0
POLYLINE
  8
画層4
  6
CONTINUOUS
 10
0.0
 20
0.0
 30
0.0
 66
1
 70
     1
  0
VERTEX
  8
画層4
 10
92.7990677070148
  20
184.467943450683
  0
VERTEX
  8
画層4
 10
91.7557356586997
  20
183.390233732364
  0
VERTEX
  8
画層4
 10
91.3566607894321
  20
184.056285480871
  0
SEQEND
100
AcDbEntity
  8
画層4
  0
POLYLINE
  8
画層4
  6
CONTINUOUS
 10
0.0
 20
0.0
 30
0.0
 66
1
 70
     1
  0
VERTEX
  8
画層4
 10
95.2009322929852
  20
185.907056549317
  0
VERTEX
  8
画層4
 10
96.2442643413003
  20
186.984766267636
  0
VERTEX
  8
画層4
 10
96.6433392105679
  20
186.318714519129
  0
SEQEND
100
AcDbEntity
  8
画層4
  0
TEXT
  8
画層4
 62
11
  6
CONTINUOUS
 62
11
 10
100.64819712661
 20
189.46230700918
 40
4
  1
%%c2.8
  7
Font_0
 50
30.9285639639181
 72
2
 11
108.457122249511
 21
198.804185215672
 73
3
  0
LINE
  8
画層4
  6
CONTINUOUS
 10
95.2009322929852
 20
185.907056549317
 11
110.641490345652
 21
195.158497897681
  0
LINE
  8
画層4
  6
CONTINUOUS
 10
92.7990677070148
 20
184.467943450683
 11
90.2256413649037
 21
182.926036559289
  0
LINE
  8
画層4
  6
CONTINUOUS
 10
66
 20
188.3275
 11
66
 21
195.5
  0
LINE
  8
画層4
  6
CONTINUOUS
 10
66
 20
195
 11
94
 21
195
  0
POLYLINE
  8
画層4
  6
CONTINUOUS
 10
0.0
 20
0.0
 30
0.0
 66
1
 70
     1
  0
VERTEX
  8
画層4
 10
66
  20
195
  0
VERTEX
  8
画層4
 10
67.4488887394336
  20
195.388228567654
  0
VERTEX
  8
画層4
 10
67.4488887394336
  20
194.611771432346
  0
SEQEND
100
AcDbEntity
  8
画層4
  0
POLYLINE
  8
画層4
  6
CONTINUOUS
 10
0.0
 20
0.0
 30
0.0
 66
1
 70
     1
  0
VERTEX
  8
画層4
 10
94
  20
195
  0
VERTEX
  8
画層4
 10
92.5511112605664
  20
194.611771432346
  0
VERTEX
  8
画層4
 10
92.5511112605664
  20
195.388228567654
  0
SEQEND
100
AcDbEntity
  8
画層4
  0
TEXT
  8
画層4
 62
11
  6
CONTINUOUS
 62
11
 10
77.75
 20
195.25
 40
4
  1
28
  7
Font_0
 72
1
 11
80
 21
199.25
 73
3
  0
LINE
  8
画層4
  6
CONTINUOUS
 10
94
 20
187.973385844212
 11
94
 21
195.5
  0
LINE
  8
画層4
  6
CONTINUOUS
 10
68.25
 20
125
 11
59.5
 21
125
  0
LINE
  8
画層4
  6
CONTINUOUS
 10
60
 20
125
 11
60
 21
141.1
  0
POLYLINE
  8
画層4
  6
CONTINUOUS
 10
0.0
 20
0.0
 30
0.0
 66
1
 70
     1
  0
VERTEX
  8
画層4
 10
60
  20
125
  0
VERTEX
  8
画層4
 10
59.6117714323462
  20
126.448888739434
  0
VERTEX
  8
画層4
 10
60.3882285676538
  20
126.448888739434
  0
SEQEND
100
AcDbEntity
  8
画層4
  0
POLYLINE
  8
画層4
  6
CONTINUOUS
 10
0.0
 20
0.0
 30
0.0
 66
1
 70
     1
  0
VERTEX
  8
画層4
 10
60
  20
141.1
  0
VERTEX
  8
画層4
 10
60.3882285676538
  20
139.651111260566
  0
VERTEX
  8
画層4
 10
59.6117714323462
  20
139.651111260566
  0
SEQEND
100
AcDbEntity
  8
画層4
  0
TEXT
  8
画層4
 62
11
  6
CONTINUOUS
 62
11
 10
59.75
 20
128.3
 40
4
  1
16.1
  7
Font_0
 50
90
 72
1
 11
55.75
 21
133.05
 73
3
  0
LINE
  8
画層4
  6
CONTINUOUS
 10
68.25
 20
141.1
 11
59.5
 21
141.1
  0
LINE
  8
画層4
  6
CONTINUOUS
 10
68.25
 20
143.6
 11
59.5
 21
143.6
  0
LINE
  8
画層4
  6
CONTINUOUS
 10
60
 20
143.6
 11
60
 21
148.3
  0
POLYLINE
  8
画層4
  6
CONTINUOUS
 10
0.0
 20
0.0
 30
0.0
 66
1
 70
     1
  0
VERTEX
  8
画層4
 10
60
  20
143.6
  0
VERTEX
  8
画層4
 10
59.6117714323462
  20
145.048888739434
  0
VERTEX
  8
画層4
 10
60.3882285676538
  20
145.048888739434
  0
SEQEND
100
AcDbEntity
  8
画層4
  0
POLYLINE
  8
画層4
  6
CONTINUOUS
 10
0.0
 20
0.0
 30
0.0
 66
1
 70
     1
  0
VERTEX
  8
画層4
 10
60
  20
148.3
  0
VERTEX
  8
画層4
 10
60.3882285676538
  20
146.851111260566
  0
VERTEX
  8
画層4
 10
59.6117714323462
  20
146.851111260566
  0
SEQEND
100
AcDbEntity
  8
画層4
  0
TEXT
  8
画層4
 62
11
  6
CONTINUOUS
 62
11
 10
59.75
 20
142.45
 40
4
  1
4.7
  7
Font_0
 50
90
 72
1
 11
55.75
 21
145.95
 73
3
  0
LINE
  8
画層4
  6
CONTINUOUS
 10
68.25
 20
148.3
 11
59.5
 21
148.3
  0
LINE
  8
画層4
  6
CONTINUOUS
 10
96.25
 20
141.1
 11
100.897944785276
 21
141.1
  0
LINE
  8
画層4
  6
CONTINUOUS
 10
100.397944785276
 20
141.1
 11
100.397944785276
 21
143.6
  0
POLYLINE
  8
画層4
  6
CONTINUOUS
 10
0.0
 20
0.0
 30
0.0
 66
1
 70
     1
  0
VERTEX
  8
画層4
 10
100.397944785276
  20
141.1
  0
VERTEX
  8
画層4
 10
100.009716217622
  20
142.548888739434
  0
VERTEX
  8
画層4
 10
100.78617335293
  20
142.548888739434
  0
SEQEND
100
AcDbEntity
  8
画層4
  0
POLYLINE
  8
画層4
  6
CONTINUOUS
 10
0.0
 20
0.0
 30
0.0
 66
1
 70
     1
  0
VERTEX
  8
画層4
 10
100.397944785276
  20
143.6
  0
VERTEX
  8
画層4
 10
100.78617335293
  20
142.151111260566
  0
VERTEX
  8
画層4
 10
100.009716217622
  20
142.151111260566
  0
SEQEND
100
AcDbEntity
  8
画層4
  0
TEXT
  8
画層4
 62
11
  6
CONTINUOUS
 62
11
 10
100.147944785276
 20
138.85
 40
4
  1
2.5
  7
Font_0
 50
90
 72
1
 11
96.1479447852761
 21
142.35
 73
3
  0
LINE
  8
画層4
  6
CONTINUOUS
 10
96.25
 20
143.6
 11
100.897944785276
 21
143.6
  0
LINE
  8
画層4
  6
CONTINUOUS
 10
91.75
 20
148.3
 11
100.5
 21
148.3
  0
LINE
  8
画層4
  6
CONTINUOUS
 10
100
 20
148.3
 11
100
 21
152.3
  0
POLYLINE
  8
画層4
  6
CONTINUOUS
 10
0.0
 20
0.0
 30
0.0
 66
1
 70
     1
  0
VERTEX
  8
画層4
 10
100
  20
148.3
  0
VERTEX
  8
画層4
 10
99.6117714323462
  20
149.748888739434
  0
VERTEX
  8
画層4
 10
100.388228567654
  20
149.748888739434
  0
SEQEND
100
AcDbEntity
  8
画層4
  0
POLYLINE
  8
画層4
  6
CONTINUOUS
 10
0.0
 20
0.0
 30
0.0
 66
1
 70
     1
  0
VERTEX
  8
画層4
 10
100
  20
152.3
  0
VERTEX
  8
画層4
 10
100.388228567654
  20
150.851111260566
  0
VERTEX
  8
画層4
 10
99.6117714323462
  20
150.851111260566
  0
SEQEND
100
AcDbEntity
  8
画層4
  0
TEXT
  8
画層4
 62
11
  6
CONTINUOUS
 62
11
 10
99.75
 20
149.3
 40
4
  1
4
  7
Font_0
 50
90
 72
1
 11
95.75
 21
150.3
 73
3
  0
LINE
  8
画層4
  6
CONTINUOUS
 10
78.6142181430355
 20
152.3
 11
100.5
 21
152.3
  0
LINE
  8
画層4
  6
CONTINUOUS
 10
68.67
 20
152.3
 11
59.5
 21
152.3
  0
LINE
  8
画層4
  6
CONTINUOUS
 10
60
 20
152.3
 11
60
 21
155.5
  0
POLYLINE
  8
画層4
  6
CONTINUOUS
 10
0.0
 20
0.0
 30
0.0
 66
1
 70
     1
  0
VERTEX
  8
画層4
 10
60
  20
152.3
  0
VERTEX
  8
画層4
 10
59.6117714323462
  20
153.748888739434
  0
VERTEX
  8
画層4
 10
60.3882285676538
  20
153.748888739434
  0
SEQEND
100
AcDbEntity
  8
画層4
  0
POLYLINE
  8
画層4
  6
CONTINUOUS
 10
0.0
 20
0.0
 30
0.0
 66
1
 70
     1
  0
VERTEX
  8
画層4
 10
60
  20
155.5
  0
VERTEX
  8
画層4
 10
60.3882285676538
  20
154.051111260566
  0
VERTEX
  8
画層4
 10
59.6117714323462
  20
154.051111260566
  0
SEQEND
100
AcDbEntity
  8
画層4
  0
TEXT
  8
画層4
 62
11
  6
CONTINUOUS
 62
11
 10
59.75
 20
150.4
 40
4
  1
3.2
  7
Font_0
 50
90
 72
1
 11
55.75
 21
153.9
 73
3
  0
LINE
  8
画層4
  6
CONTINUOUS
 10
72.13
 20
155.5
 11
59.5
 21
155.5
  0
LINE
  8
画層4
  6
CONTINUOUS
 10
68.25
 20
125
 11
54.5
 21
125
  0
LINE
  8
画層4
  6
CONTINUOUS
 10
55
 20
125
 11
55
 21
155.5
  0
POLYLINE
  8
画層4
  6
CONTINUOUS
 10
0.0
 20
0.0
 30
0.0
 66
1
 70
     1
  0
VERTEX
  8
画層4
 10
55
  20
125
  0
VERTEX
  8
画層4
 10
54.6117714323462
  20
126.448888739434
  0
VERTEX
  8
画層4
 10
55.3882285676538
  20
126.448888739434
  0
SEQEND
100
AcDbEntity
  8
画層4
  0
POLYLINE
  8
画層4
  6
CONTINUOUS
 10
0.0
 20
0.0
 30
0.0
 66
1
 70
     1
  0
VERTEX
  8
画層4
 10
55
  20
155.5
  0
VERTEX
  8
画層4
 10
55.3882285676538
  20
154.051111260566
  0
VERTEX
  8
画層4
 10
54.6117714323462
  20
154.051111260566
  0
SEQEND
100
AcDbEntity
  8
画層4
  0
TEXT
  8
画層4
 62
11
  6
CONTINUOUS
 62
11
 10
54.75
 20
135.5
 40
4
  1
30.5
  7
Font_0
 50
90
 72
1
 11
50.75
 21
140.25
 73
3
  0
LINE
  8
画層4
  6
CONTINUOUS
 10
68.6879447852761
 20
155.5
 11
54.5
 21
155.5
  0
LINE
  8
画層4
  6
CONTINUOUS
 10
74
 20
145.3425
 11
74
 21
139.5
  0
LINE
  8
画層4
  6
CONTINUOUS
 10
74
 20
140
 11
80
 21
140
  0
POLYLINE
  8
画層4
  6
CONTINUOUS
 10
0.0
 20
0.0
 30
0.0
 66
1
 70
     1
  0
VERTEX
  8
画層4
 10
74
  20
140
  0
VERTEX
  8
画層4
 10
75.4488887394336
  20
140.388228567654
  0
VERTEX
  8
画層4
 10
75.4488887394336
  20
139.611771432346
  0
SEQEND
100
AcDbEntity
  8
画層4
  0
POLYLINE
  8
画層4
  6
CONTINUOUS
 10
0.0
 20
0.0
 30
0.0
 66
1
 70
     1
  0
VERTEX
  8
画層4
 10
80
  20
140
  0
VERTEX
  8
画層4
 10
78.5511112605664
  20
139.611771432346
  0
VERTEX
  8
画層4
 10
78.5511112605664
  20
140.388228567654
  0
SEQEND
100
AcDbEntity
  8
画層4
  0
TEXT
  8
画層4
 62
11
  6
CONTINUOUS
 62
11
 10
76
 20
140.25
 40
4
  1
6
  7
Font_0
 72
1
 11
77
 21
144.25
 73
3
  0
LINE
  8
画層4
  6
CONTINUOUS
 10
80
 20
144.75
 11
80
 21
139.5
  0
LINE
  8
画層4
  6
CONTINUOUS
 10
80
 20
124.75
 11
80
 21
119.5
  0
LINE
  8
画層4
  6
CONTINUOUS
 10
80
 20
120
 11
91.5
 21
120
  0
POLYLINE
  8
画層4
  6
CONTINUOUS
 10
0.0
 20
0.0
 30
0.0
 66
1
 70
     1
  0
VERTEX
  8
画層4
 10
80
  20
120
  0
VERTEX
  8
画層4
 10
81.4488887394336
  20
120.388228567654
  0
VERTEX
  8
画層4
 10
81.4488887394336
  20
119.611771432346
  0
SEQEND
100
AcDbEntity
  8
画層4
  0
POLYLINE
  8
画層4
  6
CONTINUOUS
 10
0.0
 20
0.0
 30
0.0
 66
1
 70
     1
  0
VERTEX
  8
画層4
 10
91.5
  20
120
  0
VERTEX
  8
画層4
 10
90.0511112605664
  20
119.611771432346
  0
VERTEX
  8
画層4
 10
90.0511112605664
  20
120.388228567654
  0
SEQEND
100
AcDbEntity
  8
画層4
  0
TEXT
  8
画層4
 62
11
  6
CONTINUOUS
 62
11
 10
81
 20
120.25
 40
4
  1
11.5
  7
Font_0
 72
1
 11
85.75
 21
124.25
 73
3
  0
LINE
  8
画層4
  6
CONTINUOUS
 10
91.5
 20
124.75
 11
91.5
 21
119.5
  0
LINE
  8
画層4
  6
CONTINUOUS
 10
68.5
 20
124.75
 11
68.5
 21
114.5
  0
LINE
  8
画層4
  6
CONTINUOUS
 10
68.5
 20
115
 11
91.5
 21
115
  0
POLYLINE
  8
画層4
  6
CONTINUOUS
 10
0.0
 20
0.0
 30
0.0
 66
1
 70
     1
  0
VERTEX
  8
画層4
 10
68.5
  20
115
  0
VERTEX
  8
画層4
 10
69.9488887394336
  20
115.388228567654
  0
VERTEX
  8
画層4
 10
69.9488887394336
  20
114.611771432346
  0
SEQEND
100
AcDbEntity
  8
画層4
  0
POLYLINE
  8
画層4
  6
CONTINUOUS
 10
0.0
 20
0.0
 30
0.0
 66
1
 70
     1
  0
VERTEX
  8
画層4
 10
91.5
  20
115
  0
VERTEX
  8
画層4
 10
90.0511112605664
  20
114.611771432346
  0
VERTEX
  8
画層4
 10
90.0511112605664
  20
115.388228567654
  0
SEQEND
100
AcDbEntity
  8
画層4
  0
TEXT
  8
画層4
 62
11
  6
CONTINUOUS
 62
11
 10
77.75
 20
115.25
 40
4
  1
23
  7
Font_0
 72
1
 11
80
 21
119.25
 73
3
  0
LINE
  8
画層4
  6
CONTINUOUS
 10
91.5
 20
124.75
 11
91.5
 21
114.5
  0
LINE
  8
画層4
  6
CONTINUOUS
 10
63.875
 20
140.85
 11
63.875
 21
109.5
  0
LINE
  8
画層4
  6
CONTINUOUS
 10
63.875
 20
110
 11
96
 21
110
  0
POLYLINE
  8
画層4
  6
CONTINUOUS
 10
0.0
 20
0.0
 30
0.0
 66
1
 70
     1
  0
VERTEX
  8
画層4
 10
63.875
  20
110
  0
VERTEX
  8
画層4
 10
65.3238887394336
  20
110.388228567654
  0
VERTEX
  8
画層4
 10
65.3238887394336
  20
109.611771432346
  0
SEQEND
100
AcDbEntity
  8
画層4
  0
POLYLINE
  8
画層4
  6
CONTINUOUS
 10
0.0
 20
0.0
 30
0.0
 66
1
 70
     1
  0
VERTEX
  8
画層4
 10
96
  20
110
  0
VERTEX
  8
画層4
 10
94.5511112605664
  20
109.611771432346
  0
VERTEX
  8
画層4
 10
94.5511112605664
  20
110.388228567654
  0
SEQEND
100
AcDbEntity
  8
画層4
  0
TEXT
  8
画層4
 62
11
  6
CONTINUOUS
 62
11
 10
73.9375
 20
110.25
 40
4
  1
32.13
  7
Font_0
 72
1
 11
79.9375
 21
114.25
 73
3
  0
LINE
  8
画層4
  6
CONTINUOUS
 10
96
 20
140.85
 11
96
 21
109.5
  0
LINE
  8
画層4
  6
CONTINUOUS
 10
76.3867748281985
 20
180.703115324319
 11
71.6132251718015
 21
189.671884675681
  0
POLYLINE
  8
画層4
  6
CONTINUOUS
 10
0.0
 20
0.0
 30
0.0
 66
1
 70
     1
  0
VERTEX
  8
画層4
 10
76.3867748281985
  20
180.703115324319
  0
VERTEX
  8
画層4
 10
77.4102270745742
  20
179.606508968607
  0
VERTEX
  8
画層4
 10
76.7248072952639
  20
179.241700239133
  0
SEQEND
100
AcDbEntity
  8
画層4
  0
POLYLINE
  8
画層4
  6
CONTINUOUS
 10
0.0
 20
0.0
 30
0.0
 66
1
 70
     1
  0
VERTEX
  8
画層4
 10
71.6132251718015
  20
189.671884675681
  0
VERTEX
  8
画層4
 10
70.5897729254258
  20
190.768491031393
  0
VERTEX
  8
画層4
 10
71.2751927047361
  20
191.133299760867
  0
SEQEND
100
AcDbEntity
  8
画層4
  0
TEXT
  8
画層4
 62
11
  6
CONTINUOUS
 62
11
 10
61.2625681903947
 20
209.651284067385
 40
4
  1
%%c10.16
  7
Font_0
 50
-61.9762469801613
 72
2
 11
72.5458995620478
 21
196.965211658737
 73
3
  0
LINE
  8
画層4
  6
CONTINUOUS
 10
71.6132251718015
 20
189.671884675681
 11
60.8069611858633
 21
209.975201120691
  0
LINE
  8
画層4
  6
CONTINUOUS
 10
76.3867748281985
 20
180.703115324319
 11
77.7962875220165
 21
178.054856657579
  0
TEXT
  8
画層4
 62
11
  6
CONTINUOUS
 62
11
 10
36.8379447852761
 20
100.320828220859
 40
4
  1
マイクロサーボ SG90本体
  7
Font_0
 72
1
 11
63.0879447852761
 21
104.320828220859
 73
3
  0
TEXT
  8
画層4
 62
11
  6
CONTINUOUS
 62
11
 10
145.915552147239
 20
170.780828220859
 40
4
  1
付属レバー1
  7
Font_0
 72
1
 11
158.165552147239
 21
174.780828220859
 73
3
  0
TEXT
  8
画層4
 62
11
  6
CONTINUOUS
 62
11
 10
147.475552147239
 20
136.460828220859
 40
4
  1
付属レバー2
  7
Font_0
 72
1
 11
159.725552147239
 21
140.460828220859
 73
3
  0
TEXT
  8
画層4
 62
11
  6
CONTINUOUS
 62
11
 10
145.525552147239
 20
99.2416257668712
 40
4
  1
付属レバー3
  7
Font_0
 72
1
 11
157.775552147239
 21
103.241625766871
 73
3
  0
TEXT
  8
画層4
 62
11
  6
CONTINUOUS
 62
11
 10
217.636226993865
 20
181.401625766871
 40
4
  1
付属タッピングビスM2.3x5(1個）
  7
Font_0
 72
1
 11
252.136226993865
 21
185.401625766871
 73
3
  0
TEXT
  8
画層4
 62
11
  6
CONTINUOUS
 62
11
 10
219.586226993865
 20
164.371625766871
 40
4
  1
付属タッピングビスM2.3x9(2個）
  7
Font_0
 72
1
 11
254.086226993865
 21
168.371625766871
 73
3
  0
ENDSEC
  0
EOF
