999
Outputted By AR_CAD Ver.1.4.7
  0
SECTION
  2
HEADER
  9
$ACADVER
  1
AC1009
  9
$DWGCODEPAGE
  3
DOS932
  9
$EXTMIN
 10
0
 20
0
  9
$EXTMAX
 10
297
 20
210
  9
$INSBASE
 10
0.0
 20
0.0
 30
0.0
  9
$HANDLING
 70
     1
  9
$LTSCALE
 40
1
  0
ENDSEC
  0
SECTION
  2
TABLES
  0
TABLE
  2
LTYPE
 70
     7
  0
LTYPE
  2
BYBLOCK
 70
    64
 3

 72
    65
 73
    0
 40
    0
  0
LTYPE
  2
BYLAYER
 70
    64
 3

 72
    65
 73
    0
 40
    0
  0
LTYPE
  2
CONTINUOUS
 70
    64
 3
CONTINUOUS
 72
    65
 73
    0
 40
    0
  0
LTYPE
  2
DASHED
 70
    64
 3

 72
    65
 73
    2
 40
    3.5
 49
    2.91666666666667
 49
    -0.583333333333333
  0
LTYPE
  2
DOT
 70
    64
 3

 72
    65
 73
    2
 40
    0.5
 49
    0.25
 49
    -0.25
  0
LTYPE
  2
DASHDOT
 70
    64
 3

 72
    65
 73
    4
 40
    3.5
 49
    1.84210526315789
 49
    -0.552631578947368
 49
    0.552631578947368
 49
    -0.552631578947368
  0
LTYPE
  2
DIVIDE
 70
    64
 3

 72
    65
 73
    6
 40
    3.5
 49
    1.4
 49
    -0.42
 49
    0.42
 49
    -0.42
 49
    0.42
 49
    -0.42
  0
LTYPE
  2
HIDDEN
 70
    64
 3

 72
    65
 73
    2
 40
    4
 49
    2
 49
    -2
  0
ENDTAB
  0
TABLE
  2
LAYER
 70
   257
  0
LAYER
  2
画層0
 70
    0
 62
7
  6
CONTINUOUS
  0
LAYER
  2
画層1
 70
    0
 62
3
  6
CONTINUOUS
  0
LAYER
  2
画層2
 70
    0
 62
9
  6
CONTINUOUS
  0
LAYER
  2
画層3
 70
    0
 62
5
  6
CONTINUOUS
  0
LAYER
  2
画層4
 70
    0
 62
6
  6
CONTINUOUS
  0
LAYER
  2
画層5
 70
    0
 62
7
  6
CONTINUOUS
  0
LAYER
  2
画層6
 70
    0
 62
7
  6
CONTINUOUS
  0
LAYER
  2
画層7
 70
    0
 62
51
  6
CONTINUOUS
  0
LAYER
  2
画層8
 70
    0
 62
61
  6
CONTINUOUS
  0
LAYER
  2
画層9
 70
    0
 62
111
  6
CONTINUOUS
  0
LAYER
  2
画層10
 70
    0
 62
91
  6
CONTINUOUS
  0
LAYER
  2
画層11
 70
    0
 62
131
  6
CONTINUOUS
  0
LAYER
  2
画層12
 70
    0
 62
161
  6
CONTINUOUS
  0
LAYER
  2
画層13
 70
    0
 62
5
  6
CONTINUOUS
  0
LAYER
  2
画層14
 70
    0
 62
7
  6
CONTINUOUS
  0
LAYER
  2
画層15
 70
    0
 62
137
  6
CONTINUOUS
  0
LAYER
  2
画層16
 70
    0
 62
7
  6
CONTINUOUS
  0
LAYER
  2
画層17
 70
    0
 62
70
  6
CONTINUOUS
  0
LAYER
  2
画層18
 70
    0
 62
211
  6
CONTINUOUS
  0
LAYER
  2
画層19
 70
    0
 62
137
  6
CONTINUOUS
  0
LAYER
  2
画層20
 70
    0
 62
4
  6
CONTINUOUS
  0
LAYER
  2
画層21
 70
    0
 62
131
  6
CONTINUOUS
  0
LAYER
  2
画層22
 70
    0
 62
4
  6
CONTINUOUS
  0
LAYER
  2
画層23
 70
    0
 62
4
  6
CONTINUOUS
  0
LAYER
  2
画層24
 70
    0
 62
7
  6
CONTINUOUS
  0
LAYER
  2
画層25
 70
    0
 62
7
  6
CONTINUOUS
  0
LAYER
  2
画層26
 70
    0
 62
7
  6
CONTINUOUS
  0
LAYER
  2
画層27
 70
    0
 62
7
  6
CONTINUOUS
  0
LAYER
  2
画層28
 70
    0
 62
7
  6
CONTINUOUS
  0
LAYER
  2
画層29
 70
    0
 62
7
  6
CONTINUOUS
  0
LAYER
  2
画層30
 70
    0
 62
7
  6
CONTINUOUS
  0
LAYER
  2
画層31
 70
    0
 62
7
  6
CONTINUOUS
  0
LAYER
  2
画層32
 70
    0
 62
7
  6
CONTINUOUS
  0
LAYER
  2
画層33
 70
    0
 62
7
  6
CONTINUOUS
  0
LAYER
  2
画層34
 70
    0
 62
7
  6
CONTINUOUS
  0
LAYER
  2
画層35
 70
    0
 62
7
  6
CONTINUOUS
  0
LAYER
  2
画層36
 70
    0
 62
7
  6
CONTINUOUS
  0
LAYER
  2
画層37
 70
    0
 62
7
  6
CONTINUOUS
  0
LAYER
  2
画層38
 70
    0
 62
7
  6
CONTINUOUS
  0
LAYER
  2
画層39
 70
    0
 62
7
  6
CONTINUOUS
  0
LAYER
  2
画層40
 70
    0
 62
7
  6
CONTINUOUS
  0
LAYER
  2
画層41
 70
    0
 62
7
  6
CONTINUOUS
  0
LAYER
  2
画層42
 70
    0
 62
7
  6
CONTINUOUS
  0
LAYER
  2
画層43
 70
    0
 62
7
  6
CONTINUOUS
  0
LAYER
  2
画層44
 70
    0
 62
7
  6
CONTINUOUS
  0
LAYER
  2
画層45
 70
    0
 62
7
  6
CONTINUOUS
  0
LAYER
  2
画層46
 70
    0
 62
7
  6
CONTINUOUS
  0
LAYER
  2
画層47
 70
    0
 62
7
  6
CONTINUOUS
  0
LAYER
  2
画層48
 70
    0
 62
7
  6
CONTINUOUS
  0
LAYER
  2
画層49
 70
    0
 62
7
  6
CONTINUOUS
  0
LAYER
  2
画層50
 70
    0
 62
7
  6
CONTINUOUS
  0
LAYER
  2
画層51
 70
    0
 62
7
  6
CONTINUOUS
  0
LAYER
  2
画層52
 70
    0
 62
7
  6
CONTINUOUS
  0
LAYER
  2
画層53
 70
    0
 62
7
  6
CONTINUOUS
  0
LAYER
  2
画層54
 70
    0
 62
7
  6
CONTINUOUS
  0
LAYER
  2
画層55
 70
    0
 62
7
  6
CONTINUOUS
  0
LAYER
  2
画層56
 70
    0
 62
7
  6
CONTINUOUS
  0
LAYER
  2
画層57
 70
    0
 62
7
  6
CONTINUOUS
  0
LAYER
  2
画層58
 70
    0
 62
7
  6
CONTINUOUS
  0
LAYER
  2
画層59
 70
    0
 62
7
  6
CONTINUOUS
  0
LAYER
  2
画層60
 70
    0
 62
7
  6
CONTINUOUS
  0
LAYER
  2
画層61
 70
    0
 62
7
  6
CONTINUOUS
  0
LAYER
  2
画層62
 70
    0
 62
7
  6
CONTINUOUS
  0
LAYER
  2
画層63
 70
    0
 62
7
  6
CONTINUOUS
  0
LAYER
  2
画層64
 70
    0
 62
7
  6
CONTINUOUS
  0
LAYER
  2
画層65
 70
    0
 62
7
  6
CONTINUOUS
  0
LAYER
  2
画層66
 70
    0
 62
7
  6
CONTINUOUS
  0
LAYER
  2
画層67
 70
    0
 62
7
  6
CONTINUOUS
  0
LAYER
  2
画層68
 70
    0
 62
7
  6
CONTINUOUS
  0
LAYER
  2
画層69
 70
    0
 62
7
  6
CONTINUOUS
  0
LAYER
  2
画層70
 70
    0
 62
7
  6
CONTINUOUS
  0
LAYER
  2
画層71
 70
    0
 62
7
  6
CONTINUOUS
  0
LAYER
  2
画層72
 70
    0
 62
7
  6
CONTINUOUS
  0
LAYER
  2
画層73
 70
    0
 62
7
  6
CONTINUOUS
  0
LAYER
  2
画層74
 70
    0
 62
7
  6
CONTINUOUS
  0
LAYER
  2
画層75
 70
    0
 62
7
  6
CONTINUOUS
  0
LAYER
  2
画層76
 70
    0
 62
7
  6
CONTINUOUS
  0
LAYER
  2
画層77
 70
    0
 62
7
  6
CONTINUOUS
  0
LAYER
  2
画層78
 70
    0
 62
7
  6
CONTINUOUS
  0
LAYER
  2
画層79
 70
    0
 62
7
  6
CONTINUOUS
  0
LAYER
  2
画層80
 70
    0
 62
7
  6
CONTINUOUS
  0
LAYER
  2
画層81
 70
    0
 62
7
  6
CONTINUOUS
  0
LAYER
  2
画層82
 70
    0
 62
7
  6
CONTINUOUS
  0
LAYER
  2
画層83
 70
    0
 62
7
  6
CONTINUOUS
  0
LAYER
  2
画層84
 70
    0
 62
7
  6
CONTINUOUS
  0
LAYER
  2
画層85
 70
    0
 62
7
  6
CONTINUOUS
  0
LAYER
  2
画層86
 70
    0
 62
7
  6
CONTINUOUS
  0
LAYER
  2
画層87
 70
    0
 62
7
  6
CONTINUOUS
  0
LAYER
  2
画層88
 70
    0
 62
7
  6
CONTINUOUS
  0
LAYER
  2
画層89
 70
    0
 62
7
  6
CONTINUOUS
  0
LAYER
  2
画層90
 70
    0
 62
7
  6
CONTINUOUS
  0
LAYER
  2
画層91
 70
    0
 62
7
  6
CONTINUOUS
  0
LAYER
  2
画層92
 70
    0
 62
7
  6
CONTINUOUS
  0
LAYER
  2
画層93
 70
    0
 62
7
  6
CONTINUOUS
  0
LAYER
  2
画層94
 70
    0
 62
7
  6
CONTINUOUS
  0
LAYER
  2
画層95
 70
    0
 62
7
  6
CONTINUOUS
  0
LAYER
  2
画層96
 70
    0
 62
7
  6
CONTINUOUS
  0
LAYER
  2
画層97
 70
    0
 62
7
  6
CONTINUOUS
  0
LAYER
  2
画層98
 70
    0
 62
7
  6
CONTINUOUS
  0
LAYER
  2
画層99
 70
    0
 62
7
  6
CONTINUOUS
  0
LAYER
  2
画層100
 70
    0
 62
7
  6
CONTINUOUS
  0
LAYER
  2
画層101
 70
    0
 62
7
  6
CONTINUOUS
  0
LAYER
  2
画層102
 70
    0
 62
7
  6
CONTINUOUS
  0
LAYER
  2
画層103
 70
    0
 62
7
  6
CONTINUOUS
  0
LAYER
  2
画層104
 70
    0
 62
7
  6
CONTINUOUS
  0
LAYER
  2
画層105
 70
    0
 62
7
  6
CONTINUOUS
  0
LAYER
  2
画層106
 70
    0
 62
7
  6
CONTINUOUS
  0
LAYER
  2
画層107
 70
    0
 62
7
  6
CONTINUOUS
  0
LAYER
  2
画層108
 70
    0
 62
7
  6
CONTINUOUS
  0
LAYER
  2
画層109
 70
    0
 62
7
  6
CONTINUOUS
  0
LAYER
  2
画層110
 70
    0
 62
7
  6
CONTINUOUS
  0
LAYER
  2
画層111
 70
    0
 62
7
  6
CONTINUOUS
  0
LAYER
  2
画層112
 70
    0
 62
7
  6
CONTINUOUS
  0
LAYER
  2
画層113
 70
    0
 62
7
  6
CONTINUOUS
  0
LAYER
  2
画層114
 70
    0
 62
7
  6
CONTINUOUS
  0
LAYER
  2
画層115
 70
    0
 62
7
  6
CONTINUOUS
  0
LAYER
  2
画層116
 70
    0
 62
7
  6
CONTINUOUS
  0
LAYER
  2
画層117
 70
    0
 62
7
  6
CONTINUOUS
  0
LAYER
  2
画層118
 70
    0
 62
7
  6
CONTINUOUS
  0
LAYER
  2
画層119
 70
    0
 62
7
  6
CONTINUOUS
  0
LAYER
  2
画層120
 70
    0
 62
7
  6
CONTINUOUS
  0
LAYER
  2
画層121
 70
    0
 62
7
  6
CONTINUOUS
  0
LAYER
  2
画層122
 70
    0
 62
7
  6
CONTINUOUS
  0
LAYER
  2
画層123
 70
    0
 62
7
  6
CONTINUOUS
  0
LAYER
  2
画層124
 70
    0
 62
7
  6
CONTINUOUS
  0
LAYER
  2
画層125
 70
    0
 62
7
  6
CONTINUOUS
  0
LAYER
  2
画層126
 70
    0
 62
7
  6
CONTINUOUS
  0
LAYER
  2
画層127
 70
    0
 62
7
  6
CONTINUOUS
  0
LAYER
  2
画層128
 70
    0
 62
7
  6
CONTINUOUS
  0
LAYER
  2
画層129
 70
    0
 62
7
  6
CONTINUOUS
  0
LAYER
  2
画層130
 70
    0
 62
7
  6
CONTINUOUS
  0
LAYER
  2
画層131
 70
    0
 62
7
  6
CONTINUOUS
  0
LAYER
  2
画層132
 70
    0
 62
7
  6
CONTINUOUS
  0
LAYER
  2
画層133
 70
    0
 62
7
  6
CONTINUOUS
  0
LAYER
  2
画層134
 70
    0
 62
7
  6
CONTINUOUS
  0
LAYER
  2
画層135
 70
    0
 62
7
  6
CONTINUOUS
  0
LAYER
  2
画層136
 70
    0
 62
7
  6
CONTINUOUS
  0
LAYER
  2
画層137
 70
    0
 62
7
  6
CONTINUOUS
  0
LAYER
  2
画層138
 70
    0
 62
7
  6
CONTINUOUS
  0
LAYER
  2
画層139
 70
    0
 62
7
  6
CONTINUOUS
  0
LAYER
  2
画層140
 70
    0
 62
7
  6
CONTINUOUS
  0
LAYER
  2
画層141
 70
    0
 62
7
  6
CONTINUOUS
  0
LAYER
  2
画層142
 70
    0
 62
7
  6
CONTINUOUS
  0
LAYER
  2
画層143
 70
    0
 62
7
  6
CONTINUOUS
  0
LAYER
  2
画層144
 70
    0
 62
7
  6
CONTINUOUS
  0
LAYER
  2
画層145
 70
    0
 62
7
  6
CONTINUOUS
  0
LAYER
  2
画層146
 70
    0
 62
7
  6
CONTINUOUS
  0
LAYER
  2
画層147
 70
    0
 62
7
  6
CONTINUOUS
  0
LAYER
  2
画層148
 70
    0
 62
7
  6
CONTINUOUS
  0
LAYER
  2
画層149
 70
    0
 62
7
  6
CONTINUOUS
  0
LAYER
  2
画層150
 70
    0
 62
7
  6
CONTINUOUS
  0
LAYER
  2
画層151
 70
    0
 62
7
  6
CONTINUOUS
  0
LAYER
  2
画層152
 70
    0
 62
7
  6
CONTINUOUS
  0
LAYER
  2
画層153
 70
    0
 62
7
  6
CONTINUOUS
  0
LAYER
  2
画層154
 70
    0
 62
7
  6
CONTINUOUS
  0
LAYER
  2
画層155
 70
    0
 62
7
  6
CONTINUOUS
  0
LAYER
  2
画層156
 70
    0
 62
7
  6
CONTINUOUS
  0
LAYER
  2
画層157
 70
    0
 62
7
  6
CONTINUOUS
  0
LAYER
  2
画層158
 70
    0
 62
7
  6
CONTINUOUS
  0
LAYER
  2
画層159
 70
    0
 62
7
  6
CONTINUOUS
  0
LAYER
  2
画層160
 70
    0
 62
7
  6
CONTINUOUS
  0
LAYER
  2
画層161
 70
    0
 62
7
  6
CONTINUOUS
  0
LAYER
  2
画層162
 70
    0
 62
7
  6
CONTINUOUS
  0
LAYER
  2
画層163
 70
    0
 62
7
  6
CONTINUOUS
  0
LAYER
  2
画層164
 70
    0
 62
7
  6
CONTINUOUS
  0
LAYER
  2
画層165
 70
    0
 62
7
  6
CONTINUOUS
  0
LAYER
  2
画層166
 70
    0
 62
7
  6
CONTINUOUS
  0
LAYER
  2
画層167
 70
    0
 62
7
  6
CONTINUOUS
  0
LAYER
  2
画層168
 70
    0
 62
7
  6
CONTINUOUS
  0
LAYER
  2
画層169
 70
    0
 62
7
  6
CONTINUOUS
  0
LAYER
  2
画層170
 70
    0
 62
7
  6
CONTINUOUS
  0
LAYER
  2
画層171
 70
    0
 62
7
  6
CONTINUOUS
  0
LAYER
  2
画層172
 70
    0
 62
7
  6
CONTINUOUS
  0
LAYER
  2
画層173
 70
    0
 62
7
  6
CONTINUOUS
  0
LAYER
  2
画層174
 70
    0
 62
7
  6
CONTINUOUS
  0
LAYER
  2
画層175
 70
    0
 62
7
  6
CONTINUOUS
  0
LAYER
  2
画層176
 70
    0
 62
7
  6
CONTINUOUS
  0
LAYER
  2
画層177
 70
    0
 62
7
  6
CONTINUOUS
  0
LAYER
  2
画層178
 70
    0
 62
7
  6
CONTINUOUS
  0
LAYER
  2
画層179
 70
    0
 62
7
  6
CONTINUOUS
  0
LAYER
  2
画層180
 70
    0
 62
7
  6
CONTINUOUS
  0
LAYER
  2
画層181
 70
    0
 62
7
  6
CONTINUOUS
  0
LAYER
  2
画層182
 70
    0
 62
7
  6
CONTINUOUS
  0
LAYER
  2
画層183
 70
    0
 62
7
  6
CONTINUOUS
  0
LAYER
  2
画層184
 70
    0
 62
7
  6
CONTINUOUS
  0
LAYER
  2
画層185
 70
    0
 62
7
  6
CONTINUOUS
  0
LAYER
  2
画層186
 70
    0
 62
7
  6
CONTINUOUS
  0
LAYER
  2
画層187
 70
    0
 62
7
  6
CONTINUOUS
  0
LAYER
  2
画層188
 70
    0
 62
7
  6
CONTINUOUS
  0
LAYER
  2
画層189
 70
    0
 62
7
  6
CONTINUOUS
  0
LAYER
  2
画層190
 70
    0
 62
7
  6
CONTINUOUS
  0
LAYER
  2
画層191
 70
    0
 62
7
  6
CONTINUOUS
  0
LAYER
  2
画層192
 70
    0
 62
7
  6
CONTINUOUS
  0
LAYER
  2
画層193
 70
    0
 62
7
  6
CONTINUOUS
  0
LAYER
  2
画層194
 70
    0
 62
7
  6
CONTINUOUS
  0
LAYER
  2
画層195
 70
    0
 62
7
  6
CONTINUOUS
  0
LAYER
  2
画層196
 70
    0
 62
7
  6
CONTINUOUS
  0
LAYER
  2
画層197
 70
    0
 62
7
  6
CONTINUOUS
  0
LAYER
  2
画層198
 70
    0
 62
7
  6
CONTINUOUS
  0
LAYER
  2
画層199
 70
    0
 62
7
  6
CONTINUOUS
  0
LAYER
  2
画層200
 70
    0
 62
7
  6
CONTINUOUS
  0
LAYER
  2
画層201
 70
    0
 62
7
  6
CONTINUOUS
  0
LAYER
  2
画層202
 70
    0
 62
7
  6
CONTINUOUS
  0
LAYER
  2
画層203
 70
    0
 62
7
  6
CONTINUOUS
  0
LAYER
  2
画層204
 70
    0
 62
7
  6
CONTINUOUS
  0
LAYER
  2
画層205
 70
    0
 62
7
  6
CONTINUOUS
  0
LAYER
  2
画層206
 70
    0
 62
7
  6
CONTINUOUS
  0
LAYER
  2
画層207
 70
    0
 62
7
  6
CONTINUOUS
  0
LAYER
  2
画層208
 70
    0
 62
7
  6
CONTINUOUS
  0
LAYER
  2
画層209
 70
    0
 62
7
  6
CONTINUOUS
  0
LAYER
  2
画層210
 70
    0
 62
7
  6
CONTINUOUS
  0
LAYER
  2
画層211
 70
    0
 62
7
  6
CONTINUOUS
  0
LAYER
  2
画層212
 70
    0
 62
7
  6
CONTINUOUS
  0
LAYER
  2
画層213
 70
    0
 62
7
  6
CONTINUOUS
  0
LAYER
  2
画層214
 70
    0
 62
7
  6
CONTINUOUS
  0
LAYER
  2
画層215
 70
    0
 62
7
  6
CONTINUOUS
  0
LAYER
  2
画層216
 70
    0
 62
7
  6
CONTINUOUS
  0
LAYER
  2
画層217
 70
    0
 62
7
  6
CONTINUOUS
  0
LAYER
  2
画層218
 70
    0
 62
7
  6
CONTINUOUS
  0
LAYER
  2
画層219
 70
    0
 62
7
  6
CONTINUOUS
  0
LAYER
  2
画層220
 70
    0
 62
7
  6
CONTINUOUS
  0
LAYER
  2
画層221
 70
    0
 62
7
  6
CONTINUOUS
  0
LAYER
  2
画層222
 70
    0
 62
7
  6
CONTINUOUS
  0
LAYER
  2
画層223
 70
    0
 62
7
  6
CONTINUOUS
  0
LAYER
  2
画層224
 70
    0
 62
7
  6
CONTINUOUS
  0
LAYER
  2
画層225
 70
    0
 62
7
  6
CONTINUOUS
  0
LAYER
  2
画層226
 70
    0
 62
7
  6
CONTINUOUS
  0
LAYER
  2
画層227
 70
    0
 62
7
  6
CONTINUOUS
  0
LAYER
  2
画層228
 70
    0
 62
7
  6
CONTINUOUS
  0
LAYER
  2
画層229
 70
    0
 62
7
  6
CONTINUOUS
  0
LAYER
  2
画層230
 70
    0
 62
7
  6
CONTINUOUS
  0
LAYER
  2
画層231
 70
    0
 62
7
  6
CONTINUOUS
  0
LAYER
  2
画層232
 70
    0
 62
7
  6
CONTINUOUS
  0
LAYER
  2
画層233
 70
    0
 62
7
  6
CONTINUOUS
  0
LAYER
  2
画層234
 70
    0
 62
7
  6
CONTINUOUS
  0
LAYER
  2
画層235
 70
    0
 62
7
  6
CONTINUOUS
  0
LAYER
  2
画層236
 70
    0
 62
7
  6
CONTINUOUS
  0
LAYER
  2
画層237
 70
    0
 62
7
  6
CONTINUOUS
  0
LAYER
  2
画層238
 70
    0
 62
7
  6
CONTINUOUS
  0
LAYER
  2
画層239
 70
    0
 62
7
  6
CONTINUOUS
  0
LAYER
  2
画層240
 70
    0
 62
7
  6
CONTINUOUS
  0
LAYER
  2
画層241
 70
    0
 62
7
  6
CONTINUOUS
  0
LAYER
  2
画層242
 70
    0
 62
7
  6
CONTINUOUS
  0
LAYER
  2
画層243
 70
    0
 62
7
  6
CONTINUOUS
  0
LAYER
  2
画層244
 70
    0
 62
7
  6
CONTINUOUS
  0
LAYER
  2
画層245
 70
    0
 62
7
  6
CONTINUOUS
  0
LAYER
  2
画層246
 70
    0
 62
7
  6
CONTINUOUS
  0
LAYER
  2
画層247
 70
    0
 62
7
  6
CONTINUOUS
  0
LAYER
  2
画層248
 70
    0
 62
7
  6
CONTINUOUS
  0
LAYER
  2
画層249
 70
    0
 62
7
  6
CONTINUOUS
  0
LAYER
  2
画層250
 70
    0
 62
7
  6
CONTINUOUS
  0
LAYER
  2
画層251
 70
    0
 62
7
  6
CONTINUOUS
  0
LAYER
  2
画層252
 70
    0
 62
7
  6
CONTINUOUS
  0
LAYER
  2
画層253
 70
    0
 62
7
  6
CONTINUOUS
  0
LAYER
  2
画層254
 70
    0
 62
7
  6
CONTINUOUS
  0
LAYER
  2
画層255
 70
    0
 62
7
  6
CONTINUOUS
  0
LAYER
  2
0
 70
   64
 62
    7
  6
CONTINUOUS
  0
ENDTAB
  0
TABLE
  2
STYLE
 70
     1
  0
STYLE
  2
Standard
 70
     0
 40
0.0
 41
1.0
 50
0.0
 71
     0
 42
3.2
  3
TXT
  4
BIGFONT
  0
STYLE
  2
Font_0
 70
     0
 40
0.0
 41
1.0
 50
0.0
 71
     0
 42
3.2
  3
txt
  4
BIGFONT
  0
ENDTAB
  0
ENDSEC
  0
SECTION
  2
ENTITIES
  0
POLYLINE
  8
画層5
  6
CONTINUOUS
 10
0.0
 20
0.0
 30
0.0
 66
1
 70
     1
  0
VERTEX
  8
画層5
 10
24.2543445368662
  20
146.352217998419
  0
VERTEX
  8
画層5
 10
184.254344536866
  20
146.352217998419
  0
VERTEX
  8
画層5
 10
184.254344536866
  20
264.352217998419
  0
VERTEX
  8
画層5
 10
24.2543445368662
  20
264.352217998419
  0
SEQEND
100
AcDbEntity
  8
画層5
  0
LINE
  8
画層5
  6
DASHDOT
 10
20.2408656626071
 20
205.352217998419
 11
194.180865662601
 21
205.352217998419
  0
LINE
  8
画層5
  6
DASHDOT
 10
104.254344536866
 20
269.227182368965
 11
104.254344536866
 21
135.587182368959
  0
CIRCLE
  8
画層5
  6
CONTINUOUS
 10
130.754344536866
 20
154.352217998419
 40
2
  0
LINE
  8
画層5
  6
DASHDOT
 10
125.754344536866
 20
154.352217998419
 11
135.754344536866
 21
154.352217998419
  0
LINE
  8
画層5
  6
DASHDOT
 10
130.754344536866
 20
149.352217998419
 11
130.754344536866
 21
159.352217998419
  0
CIRCLE
  8
画層5
  6
CONTINUOUS
 10
130.754344536866
 20
186.352217998419
 40
2
  0
LINE
  8
画層5
  6
DASHDOT
 10
125.754344536866
 20
186.352217998419
 11
135.754344536866
 21
186.352217998419
  0
LINE
  8
画層5
  6
DASHDOT
 10
130.754344536866
 20
181.352217998419
 11
130.754344536866
 21
191.352217998419
  0
CIRCLE
  8
画層5
  6
CONTINUOUS
 10
77.754344536866
 20
186.352217998419
 40
2
  0
LINE
  8
画層5
  6
DASHDOT
 10
72.754344536866
 20
186.352217998419
 11
82.754344536866
 21
186.352217998419
  0
LINE
  8
画層5
  6
DASHDOT
 10
77.754344536866
 20
181.352217998419
 11
77.754344536866
 21
191.352217998419
  0
CIRCLE
  8
画層5
  6
CONTINUOUS
 10
77.754344536866
 20
154.352217998419
 40
2
  0
LINE
  8
画層5
  6
DASHDOT
 10
72.754344536866
 20
154.352217998419
 11
82.754344536866
 21
154.352217998419
  0
LINE
  8
画層5
  6
DASHDOT
 10
77.754344536866
 20
149.352217998419
 11
77.754344536866
 21
159.352217998419
  0
CIRCLE
  8
画層5
  6
CONTINUOUS
 10
37.754344536866
 20
224.352217998419
 40
2
  0
LINE
  8
画層5
  6
DASHDOT
 10
32.754344536866
 20
224.352217998419
 11
42.754344536866
 21
224.352217998419
  0
LINE
  8
画層5
  6
DASHDOT
 10
37.754344536866
 20
219.352217998419
 11
37.754344536866
 21
229.352217998419
  0
CIRCLE
  8
画層5
  6
CONTINUOUS
 10
90.7543445368664
 20
224.352217998419
 40
2
  0
LINE
  8
画層5
  6
DASHDOT
 10
85.7543445368664
 20
224.352217998419
 11
95.7543445368664
 21
224.352217998419
  0
LINE
  8
画層5
  6
DASHDOT
 10
90.7543445368664
 20
219.352217998419
 11
90.7543445368664
 21
229.352217998419
  0
CIRCLE
  8
画層5
  6
CONTINUOUS
 10
117.754344536866
 20
224.352217998419
 40
2
  0
LINE
  8
画層5
  6
DASHDOT
 10
112.754344536866
 20
224.352217998419
 11
122.754344536866
 21
224.352217998419
  0
LINE
  8
画層5
  6
DASHDOT
 10
117.754344536866
 20
219.352217998419
 11
117.754344536866
 21
229.352217998419
  0
CIRCLE
  8
画層5
  6
CONTINUOUS
 10
170.754344536866
 20
224.352217998419
 40
2
  0
LINE
  8
画層5
  6
DASHDOT
 10
165.754344536866
 20
224.352217998419
 11
175.754344536866
 21
224.352217998419
  0
LINE
  8
画層5
  6
DASHDOT
 10
170.754344536866
 20
219.352217998419
 11
170.754344536866
 21
229.352217998419
  0
CIRCLE
  8
画層5
  6
CONTINUOUS
 10
170.754344536866
 20
256.352217998419
 40
2
  0
LINE
  8
画層5
  6
DASHDOT
 10
165.754344536866
 20
256.352217998419
 11
175.754344536866
 21
256.352217998419
  0
LINE
  8
画層5
  6
DASHDOT
 10
170.754344536866
 20
251.352217998419
 11
170.754344536866
 21
261.352217998419
  0
CIRCLE
  8
画層5
  6
CONTINUOUS
 10
117.754344536866
 20
256.352217998419
 40
2
  0
LINE
  8
画層5
  6
DASHDOT
 10
112.754344536866
 20
256.352217998419
 11
122.754344536866
 21
256.352217998419
  0
LINE
  8
画層5
  6
DASHDOT
 10
117.754344536866
 20
251.352217998419
 11
117.754344536866
 21
261.352217998419
  0
CIRCLE
  8
画層5
  6
CONTINUOUS
 10
90.7543445368664
 20
256.352217998419
 40
2
  0
LINE
  8
画層5
  6
DASHDOT
 10
85.7543445368664
 20
256.352217998419
 11
95.7543445368664
 21
256.352217998419
  0
LINE
  8
画層5
  6
DASHDOT
 10
90.7543445368664
 20
251.352217998419
 11
90.7543445368664
 21
261.352217998419
  0
CIRCLE
  8
画層5
  6
CONTINUOUS
 10
37.754344536866
 20
256.352217998419
 40
2
  0
LINE
  8
画層5
  6
DASHDOT
 10
32.754344536866
 20
256.352217998419
 11
42.754344536866
 21
256.352217998419
  0
LINE
  8
画層5
  6
DASHDOT
 10
37.754344536866
 20
251.352217998419
 11
37.754344536866
 21
261.352217998419
  0
CIRCLE
  8
画層5
  6
CONTINUOUS
 10
60.2543445368662
 20
182.952217998419
 40
2
  0
LINE
  8
画層5
  6
DASHDOT
 10
55.2543445368662
 20
182.952217998419
 11
65.2543445368662
 21
182.952217998419
  0
LINE
  8
画層5
  6
DASHDOT
 10
60.2543445368662
 20
177.952217998419
 11
60.2543445368662
 21
187.952217998419
  0
CIRCLE
  8
画層5
  6
CONTINUOUS
 10
28.2543445368662
 20
182.952217998419
 40
2
  0
LINE
  8
画層5
  6
DASHDOT
 10
23.2543445368662
 20
182.952217998419
 11
33.2543445368662
 21
182.952217998419
  0
LINE
  8
画層5
  6
DASHDOT
 10
28.2543445368662
 20
177.952217998419
 11
28.2543445368662
 21
187.952217998419
  0
CIRCLE
  8
画層5
  6
CONTINUOUS
 10
159.254344536866
 20
183.352217998419
 40
2
  0
LINE
  8
画層5
  6
DASHDOT
 10
154.254344536866
 20
183.352217998419
 11
164.254344536866
 21
183.352217998419
  0
LINE
  8
画層5
  6
DASHDOT
 10
159.254344536866
 20
178.352217998419
 11
159.254344536866
 21
188.352217998419
  0
CIRCLE
  8
画層5
  6
CONTINUOUS
 10
159.254344536866
 20
215.352217998419
 40
2
  0
LINE
  8
画層5
  6
DASHDOT
 10
154.254344536866
 20
215.352217998419
 11
164.254344536866
 21
215.352217998419
  0
LINE
  8
画層5
  6
DASHDOT
 10
159.254344536866
 20
210.352217998419
 11
159.254344536866
 21
220.352217998419
  0
CIRCLE
  8
画層5
  6
CONTINUOUS
 10
148.754344536866
 20
152.352217998419
 40
2
  0
LINE
  8
画層5
  6
DASHDOT
 10
143.754344536866
 20
152.352217998419
 11
153.754344536866
 21
152.352217998419
  0
LINE
  8
画層5
  6
DASHDOT
 10
148.754344536866
 20
147.352217998419
 11
148.754344536866
 21
157.352217998419
  0
CIRCLE
  8
画層5
  6
CONTINUOUS
 10
148.754344536866
 20
218.352217998419
 40
2
  0
LINE
  8
画層5
  6
DASHDOT
 10
143.754344536866
 20
218.352217998419
 11
153.754344536866
 21
218.352217998419
  0
LINE
  8
画層5
  6
DASHDOT
 10
148.754344536866
 20
213.352217998419
 11
148.754344536866
 21
223.352217998419
  0
CIRCLE
  8
画層5
  6
CONTINUOUS
 10
59.7543445368662
 20
152.352217998419
 40
2
  0
LINE
  8
画層5
  6
DASHDOT
 10
54.7543445368662
 20
152.352217998419
 11
64.7543445368662
 21
152.352217998419
  0
LINE
  8
画層5
  6
DASHDOT
 10
59.7543445368662
 20
147.352217998419
 11
59.7543445368662
 21
157.352217998419
  0
CIRCLE
  8
画層5
  6
CONTINUOUS
 10
59.7543445368662
 20
218.352217998419
 40
2
  0
LINE
  8
画層5
  6
DASHDOT
 10
54.7543445368662
 20
218.352217998419
 11
64.7543445368662
 21
218.352217998419
  0
LINE
  8
画層5
  6
DASHDOT
 10
59.7543445368662
 20
213.352217998419
 11
59.7543445368662
 21
223.352217998419
  0
LINE
  8
画層15
  6
CONTINUOUS
 10
123.004344536866
 20
224.352217998419
 11
124.754344536866
 21
224.352217998419
  0
LINE
  8
画層15
  6
CONTINUOUS
 10
124.254344536866
 20
224.352217998419
 11
124.254344536866
 21
256.352217998419
  0
POLYLINE
  8
画層15
  6
CONTINUOUS
 10
0.0
 20
0.0
 30
0.0
 66
1
 70
     1
  0
VERTEX
  8
画層15
 10
124.254344536866
  20
224.352217998419
  0
VERTEX
  8
画層15
 10
123.866115969212
  20
225.801106737853
  0
VERTEX
  8
画層15
 10
124.64257310452
  20
225.801106737853
  0
SEQEND
100
AcDbEntity
  8
画層15
  0
POLYLINE
  8
画層15
  6
CONTINUOUS
 10
0.0
 20
0.0
 30
0.0
 66
1
 70
     1
  0
VERTEX
  8
画層15
 10
124.254344536866
  20
256.352217998419
  0
VERTEX
  8
画層15
 10
124.64257310452
  20
254.903329258986
  0
VERTEX
  8
画層15
 10
123.866115969212
  20
254.903329258986
  0
SEQEND
100
AcDbEntity
  8
画層15
  0
TEXT
  8
画層15
 62
116
  6
CONTINUOUS
 62
116
 10
124.004344536866
 20
238.352217998419
 40
4
  1
32
  7
Font_0
 50
90
 72
1
 11
120.004344536866
 21
240.352217998419
 73
3
  0
LINE
  8
画層15
  6
CONTINUOUS
 10
123.004344536866
 20
256.352217998419
 11
124.754344536866
 21
256.352217998419
  0
LINE
  8
画層15
  6
CONTINUOUS
 10
96.0043445368664
 20
224.352217998419
 11
99.7543445368662
 21
224.352217998419
  0
LINE
  8
画層15
  6
CONTINUOUS
 10
99.2543445368662
 20
224.352217998419
 11
99.2543445368662
 21
256.352217998419
  0
POLYLINE
  8
画層15
  6
CONTINUOUS
 10
0.0
 20
0.0
 30
0.0
 66
1
 70
     1
  0
VERTEX
  8
画層15
 10
99.2543445368662
  20
224.352217998419
  0
VERTEX
  8
画層15
 10
98.8661159692124
  20
225.801106737853
  0
VERTEX
  8
画層15
 10
99.64257310452
  20
225.801106737853
  0
SEQEND
100
AcDbEntity
  8
画層15
  0
POLYLINE
  8
画層15
  6
CONTINUOUS
 10
0.0
 20
0.0
 30
0.0
 66
1
 70
     1
  0
VERTEX
  8
画層15
 10
99.2543445368662
  20
256.352217998419
  0
VERTEX
  8
画層15
 10
99.64257310452
  20
254.903329258986
  0
VERTEX
  8
画層15
 10
98.8661159692124
  20
254.903329258986
  0
SEQEND
100
AcDbEntity
  8
画層15
  0
TEXT
  8
画層15
 62
116
  6
CONTINUOUS
 62
116
 10
99.0043445368662
 20
238.352217998419
 40
4
  1
32
  7
Font_0
 50
90
 72
1
 11
95.0043445368662
 21
240.352217998419
 73
3
  0
LINE
  8
画層15
  6
CONTINUOUS
 10
96.0043445368664
 20
256.352217998419
 11
99.7543445368662
 21
256.352217998419
  0
LINE
  8
画層15
  6
CONTINUOUS
 10
43.004344536866
 20
224.352217998419
 11
44.7543445368662
 21
224.352217998419
  0
LINE
  8
画層15
  6
CONTINUOUS
 10
44.2543445368662
 20
224.352217998419
 11
44.2543445368662
 21
256.352217998419
  0
POLYLINE
  8
画層15
  6
CONTINUOUS
 10
0.0
 20
0.0
 30
0.0
 66
1
 70
     1
  0
VERTEX
  8
画層15
 10
44.2543445368662
  20
224.352217998419
  0
VERTEX
  8
画層15
 10
43.8661159692124
  20
225.801106737853
  0
VERTEX
  8
画層15
 10
44.64257310452
  20
225.801106737853
  0
SEQEND
100
AcDbEntity
  8
画層15
  0
POLYLINE
  8
画層15
  6
CONTINUOUS
 10
0.0
 20
0.0
 30
0.0
 66
1
 70
     1
  0
VERTEX
  8
画層15
 10
44.2543445368662
  20
256.352217998419
  0
VERTEX
  8
画層15
 10
44.64257310452
  20
254.903329258986
  0
VERTEX
  8
画層15
 10
43.8661159692124
  20
254.903329258986
  0
SEQEND
100
AcDbEntity
  8
画層15
  0
TEXT
  8
画層15
 62
116
  6
CONTINUOUS
 62
116
 10
44.0043445368662
 20
238.352217998419
 40
4
  1
32
  7
Font_0
 50
90
 72
1
 11
40.0043445368662
 21
240.352217998419
 73
3
  0
LINE
  8
画層15
  6
CONTINUOUS
 10
43.004344536866
 20
256.352217998419
 11
44.7543445368662
 21
256.352217998419
  0
LINE
  8
画層15
  6
CONTINUOUS
 10
83.004344536866
 20
154.352217998419
 11
84.7543445368662
 21
154.352217998419
  0
LINE
  8
画層15
  6
CONTINUOUS
 10
84.2543445368662
 20
154.352217998419
 11
84.2543445368662
 21
186.352217998419
  0
POLYLINE
  8
画層15
  6
CONTINUOUS
 10
0.0
 20
0.0
 30
0.0
 66
1
 70
     1
  0
VERTEX
  8
画層15
 10
84.2543445368662
  20
154.352217998419
  0
VERTEX
  8
画層15
 10
83.8661159692124
  20
155.801106737853
  0
VERTEX
  8
画層15
 10
84.64257310452
  20
155.801106737853
  0
SEQEND
100
AcDbEntity
  8
画層15
  0
POLYLINE
  8
画層15
  6
CONTINUOUS
 10
0.0
 20
0.0
 30
0.0
 66
1
 70
     1
  0
VERTEX
  8
画層15
 10
84.2543445368662
  20
186.352217998419
  0
VERTEX
  8
画層15
 10
84.64257310452
  20
184.903329258986
  0
VERTEX
  8
画層15
 10
83.8661159692124
  20
184.903329258986
  0
SEQEND
100
AcDbEntity
  8
画層15
  0
TEXT
  8
画層15
 62
116
  6
CONTINUOUS
 62
116
 10
84.0043445368662
 20
168.352217998419
 40
4
  1
32
  7
Font_0
 50
90
 72
1
 11
80.0043445368662
 21
170.352217998419
 73
3
  0
LINE
  8
画層15
  6
CONTINUOUS
 10
83.004344536866
 20
186.352217998419
 11
84.7543445368662
 21
186.352217998419
  0
LINE
  8
画層15
  6
CONTINUOUS
 10
125.504344536866
 20
154.352217998419
 11
123.754344536866
 21
154.352217998419
  0
LINE
  8
画層15
  6
CONTINUOUS
 10
124.254344536866
 20
154.352217998419
 11
124.254344536866
 21
186.352217998419
  0
POLYLINE
  8
画層15
  6
CONTINUOUS
 10
0.0
 20
0.0
 30
0.0
 66
1
 70
     1
  0
VERTEX
  8
画層15
 10
124.254344536866
  20
154.352217998419
  0
VERTEX
  8
画層15
 10
123.866115969212
  20
155.801106737853
  0
VERTEX
  8
画層15
 10
124.64257310452
  20
155.801106737853
  0
SEQEND
100
AcDbEntity
  8
画層15
  0
POLYLINE
  8
画層15
  6
CONTINUOUS
 10
0.0
 20
0.0
 30
0.0
 66
1
 70
     1
  0
VERTEX
  8
画層15
 10
124.254344536866
  20
186.352217998419
  0
VERTEX
  8
画層15
 10
124.64257310452
  20
184.903329258986
  0
VERTEX
  8
画層15
 10
123.866115969212
  20
184.903329258986
  0
SEQEND
100
AcDbEntity
  8
画層15
  0
TEXT
  8
画層15
 62
116
  6
CONTINUOUS
 62
116
 10
124.004344536866
 20
168.352217998419
 40
4
  1
32
  7
Font_0
 50
90
 72
1
 11
120.004344536866
 21
170.352217998419
 73
3
  0
LINE
  8
画層15
  6
CONTINUOUS
 10
125.504344536866
 20
186.352217998419
 11
123.754344536866
 21
186.352217998419
  0
LINE
  8
画層15
  6
CONTINUOUS
 10
153.504344536866
 20
152.352217998419
 11
141.684344536866
 21
152.352217998419
  0
LINE
  8
画層15
  6
CONTINUOUS
 10
142.184344536866
 20
152.352217998419
 11
142.184344536866
 21
218.352217998419
  0
POLYLINE
  8
画層15
  6
CONTINUOUS
 10
0.0
 20
0.0
 30
0.0
 66
1
 70
     1
  0
VERTEX
  8
画層15
 10
142.184344536866
  20
152.352217998419
  0
VERTEX
  8
画層15
 10
141.796115969212
  20
153.801106737853
  0
VERTEX
  8
画層15
 10
142.57257310452
  20
153.801106737853
  0
SEQEND
100
AcDbEntity
  8
画層15
  0
POLYLINE
  8
画層15
  6
CONTINUOUS
 10
0.0
 20
0.0
 30
0.0
 66
1
 70
     1
  0
VERTEX
  8
画層15
 10
142.184344536866
  20
218.352217998419
  0
VERTEX
  8
画層15
 10
142.57257310452
  20
216.903329258985
  0
VERTEX
  8
画層15
 10
141.796115969212
  20
216.903329258985
  0
SEQEND
100
AcDbEntity
  8
画層15
  0
TEXT
  8
画層15
 62
116
  6
CONTINUOUS
 62
116
 10
141.934344536866
 20
183.352217998419
 40
4
  1
66
  7
Font_0
 50
90
 72
1
 11
137.934344536866
 21
185.352217998419
 73
3
  0
LINE
  8
画層15
  6
CONTINUOUS
 10
153.504344536866
 20
218.352217998419
 11
141.684344536866
 21
218.352217998419
  0
LINE
  8
画層15
  6
CONTINUOUS
 10
59.7543445368662
 20
213.102217998419
 11
59.7543445368662
 21
209.852217998419
  0
LINE
  8
画層15
  6
CONTINUOUS
 10
59.7543445368662
 20
210.352217998419
 11
148.754344536866
 21
210.352217998419
  0
POLYLINE
  8
画層15
  6
CONTINUOUS
 10
0.0
 20
0.0
 30
0.0
 66
1
 70
     1
  0
VERTEX
  8
画層15
 10
59.7543445368662
  20
210.352217998419
  0
VERTEX
  8
画層15
 10
61.2032332762998
  20
210.740446566073
  0
VERTEX
  8
画層15
 10
61.2032332762998
  20
209.963989430765
  0
SEQEND
100
AcDbEntity
  8
画層15
  0
POLYLINE
  8
画層15
  6
CONTINUOUS
 10
0.0
 20
0.0
 30
0.0
 66
1
 70
     1
  0
VERTEX
  8
画層15
 10
148.754344536866
  20
210.352217998419
  0
VERTEX
  8
画層15
 10
147.305455797433
  20
209.963989430765
  0
VERTEX
  8
画層15
 10
147.305455797433
  20
210.740446566073
  0
SEQEND
100
AcDbEntity
  8
画層15
  0
TEXT
  8
画層15
 62
116
  6
CONTINUOUS
 62
116
 10
102.254344536866
 20
210.602217998419
 40
4
  1
89
  7
Font_0
 72
1
 11
104.254344536866
 21
214.602217998419
 73
3
  0
LINE
  8
画層15
  6
CONTINUOUS
 10
148.754344536866
 20
213.102217998419
 11
148.754344536866
 21
209.852217998419
  0
LINE
  8
画層15
  6
CONTINUOUS
 10
164.504344536866
 20
183.352217998419
 11
169.754344536866
 21
183.352217998419
  0
LINE
  8
画層15
  6
CONTINUOUS
 10
169.254344536866
 20
183.352217998419
 11
169.254344536866
 21
215.352217998419
  0
POLYLINE
  8
画層15
  6
CONTINUOUS
 10
0.0
 20
0.0
 30
0.0
 66
1
 70
     1
  0
VERTEX
  8
画層15
 10
169.254344536866
  20
183.352217998419
  0
VERTEX
  8
画層15
 10
168.866115969212
  20
184.801106737853
  0
VERTEX
  8
画層15
 10
169.64257310452
  20
184.801106737853
  0
SEQEND
100
AcDbEntity
  8
画層15
  0
POLYLINE
  8
画層15
  6
CONTINUOUS
 10
0.0
 20
0.0
 30
0.0
 66
1
 70
     1
  0
VERTEX
  8
画層15
 10
169.254344536866
  20
215.352217998419
  0
VERTEX
  8
画層15
 10
169.64257310452
  20
213.903329258985
  0
VERTEX
  8
画層15
 10
168.866115969212
  20
213.903329258985
  0
SEQEND
100
AcDbEntity
  8
画層15
  0
TEXT
  8
画層15
 62
116
  6
CONTINUOUS
 62
116
 10
169.004344536866
 20
197.352217998419
 40
4
  1
32
  7
Font_0
 50
90
 72
1
 11
165.004344536866
 21
199.352217998419
 73
3
  0
LINE
  8
画層15
  6
CONTINUOUS
 10
164.504344536866
 20
215.352217998419
 11
169.754344536866
 21
215.352217998419
  0
LINE
  8
画層15
  6
CONTINUOUS
 10
28.2543445368662
 20
177.702217998419
 11
28.2543445368662
 21
174.852217998419
  0
LINE
  8
画層15
  6
CONTINUOUS
 10
28.2543445368662
 20
175.352217998419
 11
60.2543445368662
 21
175.352217998419
  0
POLYLINE
  8
画層15
  6
CONTINUOUS
 10
0.0
 20
0.0
 30
0.0
 66
1
 70
     1
  0
VERTEX
  8
画層15
 10
28.2543445368662
  20
175.352217998419
  0
VERTEX
  8
画層15
 10
29.7032332762998
  20
175.740446566073
  0
VERTEX
  8
画層15
 10
29.7032332762998
  20
174.963989430765
  0
SEQEND
100
AcDbEntity
  8
画層15
  0
POLYLINE
  8
画層15
  6
CONTINUOUS
 10
0.0
 20
0.0
 30
0.0
 66
1
 70
     1
  0
VERTEX
  8
画層15
 10
60.2543445368662
  20
175.352217998419
  0
VERTEX
  8
画層15
 10
58.8054557974326
  20
174.963989430765
  0
VERTEX
  8
画層15
 10
58.8054557974326
  20
175.740446566073
  0
SEQEND
100
AcDbEntity
  8
画層15
  0
TEXT
  8
画層15
 62
116
  6
CONTINUOUS
 62
116
 10
42.2543445368662
 20
175.602217998419
 40
4
  1
32
  7
Font_0
 72
1
 11
44.2543445368662
 21
179.602217998419
 73
3
  0
LINE
  8
画層15
  6
CONTINUOUS
 10
60.2543445368662
 20
177.702217998419
 11
60.2543445368662
 21
174.852217998419
  0
LINE
  8
画層15
  6
CONTINUOUS
 10
59.7543445368662
 20
147.102217998419
 11
59.7543445368662
 21
139.852217998419
  0
LINE
  8
画層15
  6
CONTINUOUS
 10
59.7543445368662
 20
140.352217998419
 11
148.754344536866
 21
140.352217998419
  0
POLYLINE
  8
画層15
  6
CONTINUOUS
 10
0.0
 20
0.0
 30
0.0
 66
1
 70
     1
  0
VERTEX
  8
画層15
 10
59.7543445368662
  20
140.352217998419
  0
VERTEX
  8
画層15
 10
61.2032332762998
  20
140.740446566073
  0
VERTEX
  8
画層15
 10
61.2032332762998
  20
139.963989430765
  0
SEQEND
100
AcDbEntity
  8
画層15
  0
POLYLINE
  8
画層15
  6
CONTINUOUS
 10
0.0
 20
0.0
 30
0.0
 66
1
 70
     1
  0
VERTEX
  8
画層15
 10
148.754344536866
  20
140.352217998419
  0
VERTEX
  8
画層15
 10
147.305455797433
  20
139.963989430765
  0
VERTEX
  8
画層15
 10
147.305455797433
  20
140.740446566073
  0
SEQEND
100
AcDbEntity
  8
画層15
  0
TEXT
  8
画層15
 62
116
  6
CONTINUOUS
 62
116
 10
102.254344536866
 20
140.602217998419
 40
4
  1
89
  7
Font_0
 72
1
 11
104.254344536866
 21
144.602217998419
 73
3
  0
LINE
  8
画層15
  6
CONTINUOUS
 10
148.754344536866
 20
147.102217998419
 11
148.754344536866
 21
139.852217998419
  0
LINE
  8
画層15
  6
CONTINUOUS
 10
65.0043445368662
 20
152.352217998419
 11
69.7543445368662
 21
152.352217998419
  0
LINE
  8
画層15
  6
CONTINUOUS
 10
69.2543445368662
 20
152.352217998419
 11
69.2543445368662
 21
218.352217998419
  0
POLYLINE
  8
画層15
  6
CONTINUOUS
 10
0.0
 20
0.0
 30
0.0
 66
1
 70
     1
  0
VERTEX
  8
画層15
 10
69.2543445368662
  20
152.352217998419
  0
VERTEX
  8
画層15
 10
68.8661159692124
  20
153.801106737853
  0
VERTEX
  8
画層15
 10
69.64257310452
  20
153.801106737853
  0
SEQEND
100
AcDbEntity
  8
画層15
  0
POLYLINE
  8
画層15
  6
CONTINUOUS
 10
0.0
 20
0.0
 30
0.0
 66
1
 70
     1
  0
VERTEX
  8
画層15
 10
69.2543445368662
  20
218.352217998419
  0
VERTEX
  8
画層15
 10
69.64257310452
  20
216.903329258985
  0
VERTEX
  8
画層15
 10
68.8661159692124
  20
216.903329258985
  0
SEQEND
100
AcDbEntity
  8
画層15
  0
TEXT
  8
画層15
 62
116
  6
CONTINUOUS
 62
116
 10
69.0043445368662
 20
183.352217998419
 40
4
  1
66
  7
Font_0
 50
90
 72
1
 11
65.0043445368662
 21
185.352217998419
 73
3
  0
LINE
  8
画層15
  6
CONTINUOUS
 10
65.0043445368662
 20
218.352217998419
 11
69.7543445368662
 21
218.352217998419
  0
LINE
  8
画層15
  6
CONTINUOUS
 10
176.004344536866
 20
256.352217998419
 11
179.754344536866
 21
256.352217998419
  0
LINE
  8
画層15
  6
CONTINUOUS
 10
179.254344536866
 20
256.352217998419
 11
179.254344536866
 21
224.352217998419
  0
POLYLINE
  8
画層15
  6
CONTINUOUS
 10
0.0
 20
0.0
 30
0.0
 66
1
 70
     1
  0
VERTEX
  8
画層15
 10
179.254344536866
  20
256.352217998419
  0
VERTEX
  8
画層15
 10
179.64257310452
  20
254.903329258986
  0
VERTEX
  8
画層15
 10
178.866115969212
  20
254.903329258986
  0
SEQEND
100
AcDbEntity
  8
画層15
  0
POLYLINE
  8
画層15
  6
CONTINUOUS
 10
0.0
 20
0.0
 30
0.0
 66
1
 70
     1
  0
VERTEX
  8
画層15
 10
179.254344536866
  20
224.352217998419
  0
VERTEX
  8
画層15
 10
178.866115969212
  20
225.801106737853
  0
VERTEX
  8
画層15
 10
179.64257310452
  20
225.801106737853
  0
SEQEND
100
AcDbEntity
  8
画層15
  0
TEXT
  8
画層15
 62
116
  6
CONTINUOUS
 62
116
 10
179.004344536866
 20
238.352217998419
 40
4
  1
32
  7
Font_0
 50
90
 72
1
 11
175.004344536866
 21
240.352217998419
 73
3
  0
LINE
  8
画層15
  6
CONTINUOUS
 10
176.004344536866
 20
224.352217998419
 11
179.754344536866
 21
224.352217998419
  0
LINE
  8
画層15
  6
CONTINUOUS
 10
24.2543445368662
 20
265.602217998419
 11
24.2543445368662
 21
270.852217998419
  0
LINE
  8
画層15
  6
CONTINUOUS
 10
24.2543445368662
 20
270.352217998419
 11
37.754344536866
 21
270.352217998419
  0
POLYLINE
  8
画層15
  6
CONTINUOUS
 10
0.0
 20
0.0
 30
0.0
 66
1
 70
     1
  0
VERTEX
  8
画層15
 10
24.2543445368662
  20
270.352217998419
  0
VERTEX
  8
画層15
 10
25.7032332762998
  20
270.740446566073
  0
VERTEX
  8
画層15
 10
25.7032332762998
  20
269.963989430765
  0
SEQEND
100
AcDbEntity
  8
画層15
  0
POLYLINE
  8
画層15
  6
CONTINUOUS
 10
0.0
 20
0.0
 30
0.0
 66
1
 70
     1
  0
VERTEX
  8
画層15
 10
37.754344536866
  20
270.352217998419
  0
VERTEX
  8
画層15
 10
36.3054557974324
  20
269.963989430765
  0
VERTEX
  8
画層15
 10
36.3054557974324
  20
270.740446566073
  0
SEQEND
100
AcDbEntity
  8
画層15
  0
TEXT
  8
画層15
 62
116
  6
CONTINUOUS
 62
116
 10
27.0043445368661
 20
270.602217998419
 40
4
  1
13.5
  7
Font_0
 72
1
 11
31.0043445368661
 21
274.602217998419
 73
3
  0
LINE
  8
画層15
  6
CONTINUOUS
 10
37.754344536866
 20
261.602217998419
 11
37.754344536866
 21
270.852217998419
  0
LINE
  8
画層15
  6
CONTINUOUS
 10
37.754344536866
 20
266.477217998419
 11
37.754344536866
 21
270.852217998419
  0
LINE
  8
画層15
  6
CONTINUOUS
 10
37.754344536866
 20
270.352217998419
 11
90.7543445368664
 21
270.352217998419
  0
POLYLINE
  8
画層15
  6
CONTINUOUS
 10
0.0
 20
0.0
 30
0.0
 66
1
 70
     1
  0
VERTEX
  8
画層15
 10
37.754344536866
  20
270.352217998419
  0
VERTEX
  8
画層15
 10
39.2032332762996
  20
270.740446566073
  0
VERTEX
  8
画層15
 10
39.2032332762996
  20
269.963989430765
  0
SEQEND
100
AcDbEntity
  8
画層15
  0
POLYLINE
  8
画層15
  6
CONTINUOUS
 10
0.0
 20
0.0
 30
0.0
 66
1
 70
     1
  0
VERTEX
  8
画層15
 10
90.7543445368664
  20
270.352217998419
  0
VERTEX
  8
画層15
 10
89.3054557974328
  20
269.963989430765
  0
VERTEX
  8
画層15
 10
89.3054557974328
  20
270.740446566073
  0
SEQEND
100
AcDbEntity
  8
画層15
  0
TEXT
  8
画層15
 62
116
  6
CONTINUOUS
 62
116
 10
62.2543445368662
 20
270.602217998419
 40
4
  1
53
  7
Font_0
 72
1
 11
64.2543445368662
 21
274.602217998419
 73
3
  0
LINE
  8
画層15
  6
CONTINUOUS
 10
90.7543445368664
 20
261.602217998419
 11
90.7543445368664
 21
270.852217998419
  0
LINE
  8
画層15
  6
CONTINUOUS
 10
90.7543445368664
 20
261.602217998419
 11
90.7543445368664
 21
270.852217998419
  0
LINE
  8
画層15
  6
CONTINUOUS
 10
90.7543445368664
 20
270.352217998419
 11
117.754344536866
 21
270.352217998419
  0
POLYLINE
  8
画層15
  6
CONTINUOUS
 10
0.0
 20
0.0
 30
0.0
 66
1
 70
     1
  0
VERTEX
  8
画層15
 10
90.7543445368664
  20
270.352217998419
  0
VERTEX
  8
画層15
 10
92.2032332763
  20
270.740446566073
  0
VERTEX
  8
画層15
 10
92.2032332763
  20
269.963989430765
  0
SEQEND
100
AcDbEntity
  8
画層15
  0
POLYLINE
  8
画層15
  6
CONTINUOUS
 10
0.0
 20
0.0
 30
0.0
 66
1
 70
     1
  0
VERTEX
  8
画層15
 10
117.754344536866
  20
270.352217998419
  0
VERTEX
  8
画層15
 10
116.305455797432
  20
269.963989430765
  0
VERTEX
  8
画層15
 10
116.305455797432
  20
270.740446566073
  0
SEQEND
100
AcDbEntity
  8
画層15
  0
TEXT
  8
画層15
 62
116
  6
CONTINUOUS
 62
116
 10
102.254344536866
 20
270.602217998419
 40
4
  1
27
  7
Font_0
 72
1
 11
104.254344536866
 21
274.602217998419
 73
3
  0
LINE
  8
画層15
  6
CONTINUOUS
 10
117.754344536866
 20
261.602217998419
 11
117.754344536866
 21
270.852217998419
  0
LINE
  8
画層15
  6
CONTINUOUS
 10
117.754344536866
 20
261.602217998419
 11
117.754344536866
 21
270.852217998419
  0
LINE
  8
画層15
  6
CONTINUOUS
 10
117.754344536866
 20
270.352217998419
 11
170.754344536866
 21
270.352217998419
  0
POLYLINE
  8
画層15
  6
CONTINUOUS
 10
0.0
 20
0.0
 30
0.0
 66
1
 70
     1
  0
VERTEX
  8
画層15
 10
117.754344536866
  20
270.352217998419
  0
VERTEX
  8
画層15
 10
119.2032332763
  20
270.740446566073
  0
VERTEX
  8
画層15
 10
119.2032332763
  20
269.963989430765
  0
SEQEND
100
AcDbEntity
  8
画層15
  0
POLYLINE
  8
画層15
  6
CONTINUOUS
 10
0.0
 20
0.0
 30
0.0
 66
1
 70
     1
  0
VERTEX
  8
画層15
 10
170.754344536866
  20
270.352217998419
  0
VERTEX
  8
画層15
 10
169.305455797433
  20
269.963989430765
  0
VERTEX
  8
画層15
 10
169.305455797433
  20
270.740446566073
  0
SEQEND
100
AcDbEntity
  8
画層15
  0
TEXT
  8
画層15
 62
116
  6
CONTINUOUS
 62
116
 10
142.254344536866
 20
270.602217998419
 40
4
  1
53
  7
Font_0
 72
1
 11
144.254344536866
 21
274.602217998419
 73
3
  0
LINE
  8
画層15
  6
CONTINUOUS
 10
170.754344536866
 20
261.602217998419
 11
170.754344536866
 21
270.852217998419
  0
LINE
  8
画層15
  6
CONTINUOUS
 10
170.754344536866
 20
264.602217998419
 11
170.754344536866
 21
270.852217998419
  0
LINE
  8
画層15
  6
CONTINUOUS
 10
170.754344536866
 20
270.352217998419
 11
184.254344536866
 21
270.352217998419
  0
POLYLINE
  8
画層15
  6
CONTINUOUS
 10
0.0
 20
0.0
 30
0.0
 66
1
 70
     1
  0
VERTEX
  8
画層15
 10
170.754344536866
  20
270.352217998419
  0
VERTEX
  8
画層15
 10
172.2032332763
  20
270.740446566073
  0
VERTEX
  8
画層15
 10
172.2032332763
  20
269.963989430765
  0
SEQEND
100
AcDbEntity
  8
画層15
  0
POLYLINE
  8
画層15
  6
CONTINUOUS
 10
0.0
 20
0.0
 30
0.0
 66
1
 70
     1
  0
VERTEX
  8
画層15
 10
184.254344536866
  20
270.352217998419
  0
VERTEX
  8
画層15
 10
182.805455797433
  20
269.963989430765
  0
VERTEX
  8
画層15
 10
182.805455797433
  20
270.740446566073
  0
SEQEND
100
AcDbEntity
  8
画層15
  0
TEXT
  8
画層15
 62
116
  6
CONTINUOUS
 62
116
 10
173.504344536866
 20
270.602217998419
 40
4
  1
13.5
  7
Font_0
 72
1
 11
177.504344536866
 21
274.602217998419
 73
3
  0
LINE
  8
画層15
  6
CONTINUOUS
 10
184.254344536866
 20
264.602217998419
 11
184.254344536866
 21
270.852217998419
  0
LINE
  8
画層15
  6
CONTINUOUS
 10
24.2543445368662
 20
265.602217998419
 11
24.2543445368662
 21
280.852217998419
  0
LINE
  8
画層15
  6
CONTINUOUS
 10
24.2543445368662
 20
280.352217998419
 11
184.254344536866
 21
280.352217998419
  0
POLYLINE
  8
画層15
  6
CONTINUOUS
 10
0.0
 20
0.0
 30
0.0
 66
1
 70
     1
  0
VERTEX
  8
画層15
 10
24.2543445368662
  20
280.352217998419
  0
VERTEX
  8
画層15
 10
25.7032332762998
  20
280.740446566073
  0
VERTEX
  8
画層15
 10
25.7032332762998
  20
279.963989430765
  0
SEQEND
100
AcDbEntity
  8
画層15
  0
POLYLINE
  8
画層15
  6
CONTINUOUS
 10
0.0
 20
0.0
 30
0.0
 66
1
 70
     1
  0
VERTEX
  8
画層15
 10
184.254344536866
  20
280.352217998419
  0
VERTEX
  8
画層15
 10
182.805455797433
  20
279.963989430765
  0
VERTEX
  8
画層15
 10
182.805455797433
  20
280.740446566073
  0
SEQEND
100
AcDbEntity
  8
画層15
  0
TEXT
  8
画層15
 62
116
  6
CONTINUOUS
 62
116
 10
101.254344536866
 20
280.602217998419
 40
4
  1
160
  7
Font_0
 72
1
 11
104.254344536866
 21
284.602217998419
 73
3
  0
LINE
  8
画層15
  6
CONTINUOUS
 10
184.254344536866
 20
264.602217998419
 11
184.254344536866
 21
280.852217998419
  0
LINE
  8
画層15
  6
CONTINUOUS
 10
127.223163096866
 20
146.352217998419
 11
123.754344536866
 21
146.352217998419
  0
LINE
  8
画層15
  6
CONTINUOUS
 10
124.254344536866
 20
146.352217998419
 11
124.254344536866
 21
154.352217998419
  0
POLYLINE
  8
画層15
  6
CONTINUOUS
 10
0.0
 20
0.0
 30
0.0
 66
1
 70
     1
  0
VERTEX
  8
画層15
 10
124.254344536866
  20
146.352217998419
  0
VERTEX
  8
画層15
 10
123.866115969212
  20
147.801106737853
  0
VERTEX
  8
画層15
 10
124.64257310452
  20
147.801106737853
  0
SEQEND
100
AcDbEntity
  8
画層15
  0
POLYLINE
  8
画層15
  6
CONTINUOUS
 10
0.0
 20
0.0
 30
0.0
 66
1
 70
     1
  0
VERTEX
  8
画層15
 10
124.254344536866
  20
154.352217998419
  0
VERTEX
  8
画層15
 10
124.64257310452
  20
152.903329258985
  0
VERTEX
  8
画層15
 10
123.866115969212
  20
152.903329258985
  0
SEQEND
100
AcDbEntity
  8
画層15
  0
TEXT
  8
画層15
 62
116
  6
CONTINUOUS
 62
116
 10
124.004344536866
 20
149.352217998419
 40
4
  1
8
  7
Font_0
 50
90
 72
1
 11
120.004344536866
 21
150.352217998419
 73
3
  0
LINE
  8
画層15
  6
CONTINUOUS
 10
125.504344536866
 20
154.352217998419
 11
123.754344536866
 21
154.352217998419
  0
LINE
  8
画層15
  6
CONTINUOUS
 10
89.2006094968662
 20
146.352217998419
 11
83.7543445368662
 21
146.352217998419
  0
LINE
  8
画層15
  6
CONTINUOUS
 10
84.2543445368662
 20
146.352217998419
 11
84.2543445368662
 21
155.352217998419
  0
POLYLINE
  8
画層15
  6
CONTINUOUS
 10
0.0
 20
0.0
 30
0.0
 66
1
 70
     1
  0
VERTEX
  8
画層15
 10
84.2543445368662
  20
146.352217998419
  0
VERTEX
  8
画層15
 10
83.8661159692124
  20
147.801106737853
  0
VERTEX
  8
画層15
 10
84.64257310452
  20
147.801106737853
  0
SEQEND
100
AcDbEntity
  8
画層15
  0
POLYLINE
  8
画層15
  6
CONTINUOUS
 10
0.0
 20
0.0
 30
0.0
 66
1
 70
     1
  0
VERTEX
  8
画層15
 10
84.2543445368662
  20
155.352217998419
  0
VERTEX
  8
画層15
 10
84.64257310452
  20
153.903329258985
  0
VERTEX
  8
画層15
 10
83.8661159692124
  20
153.903329258985
  0
SEQEND
100
AcDbEntity
  8
画層15
  0
TEXT
  8
画層15
 62
116
  6
CONTINUOUS
 62
116
 10
84.0043445368662
 20
149.852217998419
 40
4
  1
9
  7
Font_0
 50
90
 72
1
 11
80.0043445368662
 21
150.852217998419
 73
3
  0
LINE
  8
画層15
  6
CONTINUOUS
 10
84.0043445368662
 20
155.352217998419
 11
83.7543445368662
 21
155.352217998419
  0
LINE
  8
画層15
  6
CONTINUOUS
 10
73.0603342968662
 20
146.352217998419
 11
68.7543445368662
 21
146.352217998419
  0
LINE
  8
画層15
  6
CONTINUOUS
 10
69.2543445368662
 20
146.352217998419
 11
69.2543445368662
 21
152.352217998419
  0
POLYLINE
  8
画層15
  6
CONTINUOUS
 10
0.0
 20
0.0
 30
0.0
 66
1
 70
     1
  0
VERTEX
  8
画層15
 10
69.2543445368662
  20
146.352217998419
  0
VERTEX
  8
画層15
 10
68.8661159692124
  20
147.801106737853
  0
VERTEX
  8
画層15
 10
69.64257310452
  20
147.801106737853
  0
SEQEND
100
AcDbEntity
  8
画層15
  0
POLYLINE
  8
画層15
  6
CONTINUOUS
 10
0.0
 20
0.0
 30
0.0
 66
1
 70
     1
  0
VERTEX
  8
画層15
 10
69.2543445368662
  20
152.352217998419
  0
VERTEX
  8
画層15
 10
69.64257310452
  20
150.903329258985
  0
VERTEX
  8
画層15
 10
68.8661159692124
  20
150.903329258985
  0
SEQEND
100
AcDbEntity
  8
画層15
  0
TEXT
  8
画層15
 62
116
  6
CONTINUOUS
 62
116
 10
69.0043445368662
 20
148.352217998419
 40
4
  1
6
  7
Font_0
 50
90
 72
1
 11
65.0043445368662
 21
149.352217998419
 73
3
  0
LINE
  8
画層15
  6
CONTINUOUS
 10
69.5043445368662
 20
152.352217998419
 11
68.7543445368662
 21
152.352217998419
  0
LINE
  8
画層15
  6
CONTINUOUS
 10
148.504344536866
 20
146.352217998419
 11
141.184344536866
 21
146.352217998419
  0
LINE
  8
画層15
  6
CONTINUOUS
 10
141.684344536866
 20
146.352217998419
 11
141.684344536866
 21
152.352217998419
  0
POLYLINE
  8
画層15
  6
CONTINUOUS
 10
0.0
 20
0.0
 30
0.0
 66
1
 70
     1
  0
VERTEX
  8
画層15
 10
141.684344536866
  20
146.352217998419
  0
VERTEX
  8
画層15
 10
141.296115969212
  20
147.801106737853
  0
VERTEX
  8
画層15
 10
142.07257310452
  20
147.801106737853
  0
SEQEND
100
AcDbEntity
  8
画層15
  0
POLYLINE
  8
画層15
  6
CONTINUOUS
 10
0.0
 20
0.0
 30
0.0
 66
1
 70
     1
  0
VERTEX
  8
画層15
 10
141.684344536866
  20
152.352217998419
  0
VERTEX
  8
画層15
 10
142.07257310452
  20
150.903329258985
  0
VERTEX
  8
画層15
 10
141.296115969212
  20
150.903329258985
  0
SEQEND
100
AcDbEntity
  8
画層15
  0
TEXT
  8
画層15
 62
116
  6
CONTINUOUS
 62
116
 10
141.434344536866
 20
148.352217998419
 40
4
  1
6
  7
Font_0
 50
90
 72
1
 11
137.434344536866
 21
149.352217998419
 73
3
  0
LINE
  8
画層15
  6
CONTINUOUS
 10
146.504344536866
 20
152.352217998419
 11
141.184344536866
 21
152.352217998419
  0
LINE
  8
画層15
  6
CONTINUOUS
 10
170.318584536866
 20
146.352217998419
 11
168.754344536866
 21
146.352217998419
  0
LINE
  8
画層15
  6
CONTINUOUS
 10
169.254344536866
 20
146.352217998419
 11
169.254344536866
 21
183.352217998419
  0
POLYLINE
  8
画層15
  6
CONTINUOUS
 10
0.0
 20
0.0
 30
0.0
 66
1
 70
     1
  0
VERTEX
  8
画層15
 10
169.254344536866
  20
146.352217998419
  0
VERTEX
  8
画層15
 10
168.866115969212
  20
147.801106737853
  0
VERTEX
  8
画層15
 10
169.64257310452
  20
147.801106737853
  0
SEQEND
100
AcDbEntity
  8
画層15
  0
POLYLINE
  8
画層15
  6
CONTINUOUS
 10
0.0
 20
0.0
 30
0.0
 66
1
 70
     1
  0
VERTEX
  8
画層15
 10
169.254344536866
  20
183.352217998419
  0
VERTEX
  8
画層15
 10
169.64257310452
  20
181.903329258986
  0
VERTEX
  8
画層15
 10
168.866115969212
  20
181.903329258986
  0
SEQEND
100
AcDbEntity
  8
画層15
  0
TEXT
  8
画層15
 62
116
  6
CONTINUOUS
 62
116
 10
169.004344536866
 20
162.852217998419
 40
4
  1
37
  7
Font_0
 50
90
 72
1
 11
165.004344536866
 21
164.852217998419
 73
3
  0
LINE
  8
画層15
  6
CONTINUOUS
 10
164.004344536866
 20
183.352217998419
 11
168.754344536866
 21
183.352217998419
  0
LINE
  8
画層15
  6
CONTINUOUS
 10
24.0043445368662
 20
146.352217998419
 11
18.7543445368662
 21
146.352217998419
  0
LINE
  8
画層15
  6
CONTINUOUS
 10
19.2543445368662
 20
146.352217998419
 11
19.2543445368662
 21
182.952217998419
  0
POLYLINE
  8
画層15
  6
CONTINUOUS
 10
0.0
 20
0.0
 30
0.0
 66
1
 70
     1
  0
VERTEX
  8
画層15
 10
19.2543445368662
  20
146.352217998419
  0
VERTEX
  8
画層15
 10
18.8661159692124
  20
147.801106737853
  0
VERTEX
  8
画層15
 10
19.64257310452
  20
147.801106737853
  0
SEQEND
100
AcDbEntity
  8
画層15
  0
POLYLINE
  8
画層15
  6
CONTINUOUS
 10
0.0
 20
0.0
 30
0.0
 66
1
 70
     1
  0
VERTEX
  8
画層15
 10
19.2543445368662
  20
182.952217998419
  0
VERTEX
  8
画層15
 10
19.64257310452
  20
181.503329258986
  0
VERTEX
  8
画層15
 10
18.8661159692124
  20
181.503329258986
  0
SEQEND
100
AcDbEntity
  8
画層15
  0
TEXT
  8
画層15
 62
116
  6
CONTINUOUS
 62
116
 10
19.0043445368662
 20
160.652217998419
 40
4
  1
36.6
  7
Font_0
 50
90
 72
1
 11
15.0043445368662
 21
164.652217998419
 73
3
  0
LINE
  8
画層15
  6
CONTINUOUS
 10
24.0043445368662
 20
182.952217998419
 11
18.7543445368662
 21
182.952217998419
  0
LINE
  8
画層15
  6
CONTINUOUS
 10
32.504344536866
 20
256.352217998419
 11
18.7543445368662
 21
256.352217998419
  0
LINE
  8
画層15
  6
CONTINUOUS
 10
19.2543445368662
 20
256.352217998419
 11
19.2543445368662
 21
264.352217998419
  0
POLYLINE
  8
画層15
  6
CONTINUOUS
 10
0.0
 20
0.0
 30
0.0
 66
1
 70
     1
  0
VERTEX
  8
画層15
 10
19.2543445368662
  20
256.352217998419
  0
VERTEX
  8
画層15
 10
18.8661159692124
  20
257.801106737853
  0
VERTEX
  8
画層15
 10
19.64257310452
  20
257.801106737853
  0
SEQEND
100
AcDbEntity
  8
画層15
  0
POLYLINE
  8
画層15
  6
CONTINUOUS
 10
0.0
 20
0.0
 30
0.0
 66
1
 70
     1
  0
VERTEX
  8
画層15
 10
19.2543445368662
  20
264.352217998419
  0
VERTEX
  8
画層15
 10
19.64257310452
  20
262.903329258985
  0
VERTEX
  8
画層15
 10
18.8661159692124
  20
262.903329258985
  0
SEQEND
100
AcDbEntity
  8
画層15
  0
TEXT
  8
画層15
 62
116
  6
CONTINUOUS
 62
116
 10
19.0043445368662
 20
259.352217998419
 40
4
  1
8
  7
Font_0
 50
90
 72
1
 11
15.0043445368662
 21
260.352217998419
 73
3
  0
LINE
  8
画層15
  6
CONTINUOUS
 10
31.4133045368662
 20
264.352217998419
 11
18.7543445368662
 21
264.352217998419
  0
LINE
  8
画層15
  6
CONTINUOUS
 10
178.129344536866
 20
256.352217998419
 11
194.754344536866
 21
256.352217998419
  0
LINE
  8
画層15
  6
CONTINUOUS
 10
194.254344536866
 20
256.352217998419
 11
194.254344536866
 21
264.352217998419
  0
POLYLINE
  8
画層15
  6
CONTINUOUS
 10
0.0
 20
0.0
 30
0.0
 66
1
 70
     1
  0
VERTEX
  8
画層15
 10
194.254344536866
  20
256.352217998419
  0
VERTEX
  8
画層15
 10
193.866115969212
  20
257.801106737853
  0
VERTEX
  8
画層15
 10
194.64257310452
  20
257.801106737853
  0
SEQEND
100
AcDbEntity
  8
画層15
  0
POLYLINE
  8
画層15
  6
CONTINUOUS
 10
0.0
 20
0.0
 30
0.0
 66
1
 70
     1
  0
VERTEX
  8
画層15
 10
194.254344536866
  20
264.352217998419
  0
VERTEX
  8
画層15
 10
194.64257310452
  20
262.903329258985
  0
VERTEX
  8
画層15
 10
193.866115969212
  20
262.903329258985
  0
SEQEND
100
AcDbEntity
  8
画層15
  0
TEXT
  8
画層15
 62
116
  6
CONTINUOUS
 62
116
 10
194.004344536866
 20
259.352217998419
 40
4
  1
8
  7
Font_0
 50
90
 72
1
 11
190.004344536866
 21
260.352217998419
 73
3
  0
LINE
  8
画層15
  6
CONTINUOUS
 10
177.837901976866
 20
264.352217998419
 11
194.754344536866
 21
264.352217998419
  0
LINE
  8
画層15
  6
CONTINUOUS
 10
171.004344536866
 20
224.352217998419
 11
194.754344536866
 21
224.352217998419
  0
LINE
  8
画層15
  6
CONTINUOUS
 10
194.254344536866
 20
224.352217998419
 11
194.254344536866
 21
256.352217998419
  0
POLYLINE
  8
画層15
  6
CONTINUOUS
 10
0.0
 20
0.0
 30
0.0
 66
1
 70
     1
  0
VERTEX
  8
画層15
 10
194.254344536866
  20
224.352217998419
  0
VERTEX
  8
画層15
 10
193.866115969212
  20
225.801106737853
  0
VERTEX
  8
画層15
 10
194.64257310452
  20
225.801106737853
  0
SEQEND
100
AcDbEntity
  8
画層15
  0
POLYLINE
  8
画層15
  6
CONTINUOUS
 10
0.0
 20
0.0
 30
0.0
 66
1
 70
     1
  0
VERTEX
  8
画層15
 10
194.254344536866
  20
256.352217998419
  0
VERTEX
  8
画層15
 10
194.64257310452
  20
254.903329258986
  0
VERTEX
  8
画層15
 10
193.866115969212
  20
254.903329258986
  0
SEQEND
100
AcDbEntity
  8
画層15
  0
TEXT
  8
画層15
 62
116
  6
CONTINUOUS
 62
116
 10
194.004344536866
 20
238.352217998419
 40
4
  1
32
  7
Font_0
 50
90
 72
1
 11
190.004344536866
 21
240.352217998419
 73
3
  0
LINE
  8
画層15
  6
CONTINUOUS
 10
184.504344536866
 20
256.352217998419
 11
194.754344536866
 21
256.352217998419
  0
LINE
  8
画層15
  6
CONTINUOUS
 10
136.004344536866
 20
186.352217998419
 11
194.680865662601
 21
186.352217998419
  0
LINE
  8
画層15
  6
CONTINUOUS
 10
194.180865662601
 20
186.352217998419
 11
194.180865662601
 21
224.352217998419
  0
POLYLINE
  8
画層15
  6
CONTINUOUS
 10
0.0
 20
0.0
 30
0.0
 66
1
 70
     1
  0
VERTEX
  8
画層15
 10
194.180865662601
  20
186.352217998419
  0
VERTEX
  8
画層15
 10
193.792637094947
  20
187.801106737853
  0
VERTEX
  8
画層15
 10
194.569094230255
  20
187.801106737853
  0
SEQEND
100
AcDbEntity
  8
画層15
  0
POLYLINE
  8
画層15
  6
CONTINUOUS
 10
0.0
 20
0.0
 30
0.0
 66
1
 70
     1
  0
VERTEX
  8
画層15
 10
194.180865662601
  20
224.352217998419
  0
VERTEX
  8
画層15
 10
194.569094230255
  20
222.903329258985
  0
VERTEX
  8
画層15
 10
193.792637094947
  20
222.903329258985
  0
SEQEND
100
AcDbEntity
  8
画層15
  0
TEXT
  8
画層15
 62
116
  6
CONTINUOUS
 62
116
 10
193.930865662601
 20
203.352217998419
 40
4
  1
38
  7
Font_0
 50
90
 72
1
 11
189.930865662601
 21
205.352217998419
 73
3
  0
LINE
  8
画層15
  6
CONTINUOUS
 10
184.504344536866
 20
224.352217998419
 11
194.680865662601
 21
224.352217998419
  0
LINE
  8
画層15
  6
CONTINUOUS
 10
184.504344536866
 20
146.352217998419
 11
195.180865662601
 21
146.352217998419
  0
LINE
  8
画層15
  6
CONTINUOUS
 10
194.680865662601
 20
146.352217998419
 11
194.680865662601
 21
186.352217998419
  0
POLYLINE
  8
画層15
  6
CONTINUOUS
 10
0.0
 20
0.0
 30
0.0
 66
1
 70
     1
  0
VERTEX
  8
画層15
 10
194.680865662601
  20
146.352217998419
  0
VERTEX
  8
画層15
 10
194.292637094947
  20
147.801106737853
  0
VERTEX
  8
画層15
 10
195.069094230255
  20
147.801106737853
  0
SEQEND
100
AcDbEntity
  8
画層15
  0
POLYLINE
  8
画層15
  6
CONTINUOUS
 10
0.0
 20
0.0
 30
0.0
 66
1
 70
     1
  0
VERTEX
  8
画層15
 10
194.680865662601
  20
186.352217998419
  0
VERTEX
  8
画層15
 10
195.069094230255
  20
184.903329258986
  0
VERTEX
  8
画層15
 10
194.292637094947
  20
184.903329258986
  0
SEQEND
100
AcDbEntity
  8
画層15
  0
TEXT
  8
画層15
 62
116
  6
CONTINUOUS
 62
116
 10
194.430865662601
 20
164.352217998419
 40
4
  1
40
  7
Font_0
 50
90
 72
1
 11
190.430865662601
 21
166.352217998419
 73
3
  0
LINE
  8
画層15
  6
CONTINUOUS
 10
184.504344536866
 20
186.352217998419
 11
195.180865662601
 21
186.352217998419
  0
LINE
  8
画層15
  6
CONTINUOUS
 10
184.504344536866
 20
264.352217998419
 11
204.754344536866
 21
264.352217998419
  0
LINE
  8
画層15
  6
CONTINUOUS
 10
204.254344536866
 20
264.352217998419
 11
204.254344536866
 21
146.352217998419
  0
POLYLINE
  8
画層15
  6
CONTINUOUS
 10
0.0
 20
0.0
 30
0.0
 66
1
 70
     1
  0
VERTEX
  8
画層15
 10
204.254344536866
  20
264.352217998419
  0
VERTEX
  8
画層15
 10
204.64257310452
  20
262.903329258985
  0
VERTEX
  8
画層15
 10
203.866115969212
  20
262.903329258985
  0
SEQEND
100
AcDbEntity
  8
画層15
  0
POLYLINE
  8
画層15
  6
CONTINUOUS
 10
0.0
 20
0.0
 30
0.0
 66
1
 70
     1
  0
VERTEX
  8
画層15
 10
204.254344536866
  20
146.352217998419
  0
VERTEX
  8
画層15
 10
203.866115969212
  20
147.801106737853
  0
VERTEX
  8
画層15
 10
204.64257310452
  20
147.801106737853
  0
SEQEND
100
AcDbEntity
  8
画層15
  0
TEXT
  8
画層15
 62
116
  6
CONTINUOUS
 62
116
 10
204.004344536866
 20
202.352217998419
 40
4
  1
118
  7
Font_0
 50
90
 72
1
 11
200.004344536866
 21
205.352217998419
 73
3
  0
LINE
  8
画層15
  6
CONTINUOUS
 10
179.122264536866
 20
146.352217998419
 11
204.754344536866
 21
146.352217998419
  0
TEXT
  8
画層15
 62
116
  6
CONTINUOUS
 62
116
 10
132.184344536866
 20
285.512156648726
 40
4
  1
20-%%c4キリ
  7
Font_0
 72
1
 11
142.184344536866
 21
287.512156648726
 73
2
  0
LINE
  8
画層15
  6
CONTINUOUS
 10
129.254344536866
 20
285.352217998419
 11
154.254344536866
 21
285.352217998419
  0
LINE
  8
画層15
  6
CONTINUOUS
 10
129.254344536866
 20
285.352217998419
 11
119.304344536866
 21
258.652156648726
  0
POLYLINE
  8
画層15
  6
CONTINUOUS
 10
0.0
 20
0.0
 30
0.0
 66
1
 70
     1
  0
VERTEX
  8
画層15
 10
119.304344536866
  20
258.652156648726
  0
VERTEX
  8
画層15
 10
119.58866733934
  20
261.638653014703
  0
VERTEX
  8
画層15
 10
121.043823489672
  20
261.096376968735
  0
SEQEND
100
AcDbEntity
  8
画層15
  0
TEXT
  8
画層15
 62
116
  6
CONTINUOUS
 62
116
 10
147.724344536866
 20
130.072156648726
 40
6
  1
A5052　ｔ1
  7
Font_0
 72
1
 11
162.724344536866
 21
133.072156648726
 73
2
  0
TEXT
  8
画層15
 62
116
  6
CONTINUOUS
 62
116
 10
83.3643445368662
 20
125.912156648726
 40
6
  1
ベース寸法図
  7
Font_0
 72
1
 11
101.364344536866
 21
128.912156648726
 73
2
  0
ARC
  8
画層3
  6
CONTINUOUS
 10
73.8663806070987
 20
96.098721065904
 40
1
 50
180
 51
90
  0
LINE
  8
画層3
  6
CONTINUOUS
 10
88.8663806070987
 20
64.098721065904
 11
88.8663806070987
 21
104.098721065904
  0
LINE
  8
画層3
  6
CONTINUOUS
 10
57.8663806070987
 20
96.098721065904
 11
57.8663806070987
 21
72.098721065904
  0
LINE
  8
画層3
  6
CONTINUOUS
 10
57.8663806070987
 20
96.098721065904
 11
72.8663806070987
 21
96.098721065904
  0
LINE
  8
画層3
  6
CONTINUOUS
 10
57.8663806070987
 20
72.098721065904
 11
72.8663806070987
 21
72.098721065904
  0
LINE
  8
画層3
  6
DOT
 10
73.8663806070987
 20
104.098721065904
 11
73.8663806070987
 21
97.098721065904
  0
LINE
  8
画層3
  6
DOT
 10
73.8663806070987
 20
71.098721065904
 11
73.8663806070987
 21
64.098721065904
  0
CIRCLE
  8
画層3
  6
CONTINUOUS
 10
81.3663806070987
 20
100.098721065904
 40
2
  0
LINE
  8
画層3
  6
DASHDOT
 10
76.3663806070987
 20
100.098721065904
 11
86.3663806070987
 21
100.098721065904
  0
LINE
  8
画層3
  6
DASHDOT
 10
81.3663806070987
 20
95.098721065904
 11
81.3663806070987
 21
105.098721065904
  0
CIRCLE
  8
画層3
  6
CONTINUOUS
 10
81.3663806070987
 20
68.098721065904
 40
2
  0
LINE
  8
画層3
  6
DASHDOT
 10
76.3663806070987
 20
68.098721065904
 11
86.3663806070987
 21
68.098721065904
  0
LINE
  8
画層3
  6
DASHDOT
 10
81.3663806070987
 20
63.098721065904
 11
81.3663806070987
 21
73.098721065904
  0
LINE
  8
画層3
  6
DASHDOT
 10
54.6313806070987
 20
84.098721065904
 11
93.7613806071049
 21
84.098721065904
  0
LINE
  8
画層3
  6
CONTINUOUS
 10
57.8663806070987
 20
72.098721065904
 11
72.8663806070987
 21
72.098721065904
  0
ARC
  8
画層3
  6
CONTINUOUS
 10
73.8663806070987
 20
34.098721065904
 40
0.5
 50
180
 51
-90
  0
LINE
  8
画層3
  6
CONTINUOUS
 10
73.3663806070987
 20
50.098721065904
 11
73.8663806070987
 21
50.098721065904
  0
LINE
  8
画層3
  6
CONTINUOUS
 10
73.8663806070987
 20
50.098721065904
 11
73.8663806070987
 21
34.098721065904
  0
LINE
  8
画層3
  6
CONTINUOUS
 10
73.8663806070987
 20
34.098721065904
 11
88.8663806070987
 21
34.098721065904
  0
LINE
  8
画層3
  6
CONTINUOUS
 10
88.8663806070987
 20
34.098721065904
 11
88.8663806070987
 21
33.598721065904
  0
LINE
  8
画層3
  6
CONTINUOUS
 10
88.8663806070987
 20
33.598721065904
 11
73.8663806070987
 21
33.598721065904
  0
LINE
  8
画層3
  6
CONTINUOUS
 10
73.3663806070987
 20
34.098721065904
 11
73.3663806070987
 21
50.098721065904
  0
LINE
  8
画層3
  6
CONTINUOUS
 10
57.8663806070987
 20
34.098721065904
 11
73.3663806070987
 21
34.098721065904
  0
LINE
  8
画層3
  6
CONTINUOUS
 10
57.8663806070987
 20
34.098721065904
 11
57.8663806070987
 21
33.598721065904
  0
LINE
  8
画層3
  6
CONTINUOUS
 10
57.8663806070987
 20
33.598721065904
 11
73.8663806070987
 21
33.598721065904
  0
LINE
  8
画層3
  6
CONTINUOUS
 10
73.3663806070987
 20
104.098721065904
 11
73.3663806070987
 21
96.098721065904
  0
LINE
  8
画層3
  6
CONTINUOUS
 10
73.3663806070987
 20
96.098721065904
 11
73.8663806070987
 21
96.098721065904
  0
LINE
  8
画層3
  6
CONTINUOUS
 10
73.8663806070987
 20
96.098721065904
 11
73.8663806070987
 21
104.098721065904
  0
LINE
  8
画層3
  6
CONTINUOUS
 10
88.8663806070987
 20
104.098721065904
 11
73.3663806070987
 21
104.098721065904
  0
ARC
  8
画層3
  6
CONTINUOUS
 10
73.8663806070987
 20
72.098721065904
 40
1
 50
-90
 51
180
  0
LINE
  8
画層3
  6
DOT
 10
73.8663806070987
 20
64.098721065904
 11
73.8663806070987
 21
71.098721065904
  0
LINE
  8
画層3
  6
CONTINUOUS
 10
73.3663806070987
 20
64.098721065904
 11
73.3663806070987
 21
72.098721065904
  0
LINE
  8
画層3
  6
CONTINUOUS
 10
73.3663806070987
 20
72.098721065904
 11
73.8663806070987
 21
72.098721065904
  0
LINE
  8
画層3
  6
CONTINUOUS
 10
73.8663806070987
 20
72.098721065904
 11
73.8663806070987
 21
64.098721065904
  0
LINE
  8
画層3
  6
CONTINUOUS
 10
88.8663806070987
 20
64.098721065904
 11
73.3663806070987
 21
64.098721065904
  0
ARC
  8
画層3
  6
CONTINUOUS
 10
123.866380607099
 20
96.098721065904
 40
1
 50
90
 51
180
  0
ARC
  8
画層3
  6
CONTINUOUS
 10
123.866380607099
 20
72.098721065904
 40
1
 50
180
 51
-90
  0
LINE
  8
画層3
  6
CONTINUOUS
 10
107.866380607099
 20
96.098721065904
 11
122.866380607099
 21
96.098721065904
  0
LINE
  8
画層3
  6
CONTINUOUS
 10
107.866380607099
 20
72.098721065904
 11
122.866380607099
 21
72.098721065904
  0
LINE
  8
画層3
  6
DOT
 10
123.866380607099
 20
104.098721065904
 11
123.866380607099
 21
97.098721065904
  0
LINE
  8
画層3
  6
DOT
 10
123.866380607099
 20
71.098721065904
 11
123.866380607099
 21
64.098721065904
  0
LINE
  8
画層3
  6
DASHDOT
 10
108.866380607099
 20
98.098721065904
 11
118.866380607099
 21
98.098721065904
  0
LINE
  8
画層3
  6
DASHDOT
 10
108.866380607099
 20
70.098721065904
 11
118.866380607099
 21
70.098721065904
  0
CIRCLE
  8
画層3
  6
CONTINUOUS
 10
115.866380607099
 20
98.098721065904
 40
0.9
  0
LINE
  8
画層3
  6
DASHDOT
 10
110.866380607099
 20
98.098721065904
 11
120.866380607099
 21
98.098721065904
  0
LINE
  8
画層3
  6
DASHDOT
 10
115.866380607099
 20
93.098721065904
 11
115.866380607099
 21
103.098721065904
  0
CIRCLE
  8
画層3
  6
CONTINUOUS
 10
115.866380607099
 20
70.098721065904
 40
0.9
  0
LINE
  8
画層3
  6
DASHDOT
 10
110.866380607099
 20
70.098721065904
 11
120.866380607099
 21
70.098721065904
  0
LINE
  8
画層3
  6
DASHDOT
 10
115.866380607099
 20
65.098721065904
 11
115.866380607099
 21
75.098721065904
  0
LINE
  8
画層3
  6
CONTINUOUS
 10
123.866380607099
 20
104.098721065904
 11
123.866380607099
 21
64.098721065904
  0
LINE
  8
画層3
  6
CONTINUOUS
 10
124.366380607099
 20
64.098721065904
 11
124.366380607099
 21
104.098721065904
  0
LINE
  8
画層3
  6
CONTINUOUS
 10
107.866380607099
 20
104.098721065904
 11
107.866380607099
 21
96.098721065904
  0
LINE
  8
画層3
  6
CONTINUOUS
 10
107.866380607099
 20
72.098721065904
 11
107.866380607099
 21
64.098721065904
  0
LINE
  8
画層3
  6
CONTINUOUS
 10
123.866380607099
 20
96.098721065904
 11
124.366380607099
 21
96.098721065904
  0
LINE
  8
画層3
  6
DASHDOT
 10
126.366380607099
 20
100.098721065904
 11
121.725344208618
 21
100.098721065904
  0
LINE
  8
画層3
  6
DASHDOT
 10
126.366380607099
 20
68.098721065904
 11
121.526834565997
 21
68.098721065904
  0
LINE
  8
画層3
  6
CONTINUOUS
 10
124.366380607099
 20
104.098721065904
 11
107.866380607099
 21
104.098721065904
  0
LINE
  8
画層3
  6
CONTINUOUS
 10
107.866380607099
 20
64.098721065904
 11
124.366380607099
 21
64.098721065904
  0
ARC
  8
画層3
  6
CONTINUOUS
 10
28.8663806070987
 20
96.098721065904
 40
1
 50
0
 51
90
  0
ARC
  8
画層3
  6
CONTINUOUS
 10
28.8663806070987
 20
72.098721065904
 40
1
 50
-90
 51
0
  0
LINE
  8
画層3
  6
CONTINUOUS
 10
44.8663806070987
 20
96.098721065904
 11
29.8663806070987
 21
96.098721065904
  0
LINE
  8
画層3
  6
CONTINUOUS
 10
44.8663806070987
 20
72.098721065904
 11
29.8663806070987
 21
72.098721065904
  0
LINE
  8
画層3
  6
DOT
 10
28.8663806070987
 20
104.098721065904
 11
28.8663806070987
 21
97.098721065904
  0
LINE
  8
画層3
  6
DOT
 10
28.8663806070987
 20
71.098721065904
 11
28.8663806070987
 21
64.098721065904
  0
CIRCLE
  8
画層3
  6
CONTINUOUS
 10
38.8663806070987
 20
98.098721065904
 40
0.9
  0
LINE
  8
画層3
  6
DASHDOT
 10
43.8663806070987
 20
98.098721065904
 11
33.8663806070987
 21
98.098721065904
  0
LINE
  8
画層3
  6
DASHDOT
 10
38.8663806070987
 20
93.098721065904
 11
38.8663806070987
 21
103.098721065904
  0
CIRCLE
  8
画層3
  6
CONTINUOUS
 10
38.8663806070987
 20
70.098721065904
 40
0.9
  0
LINE
  8
画層3
  6
DASHDOT
 10
43.8663806070987
 20
70.098721065904
 11
33.8663806070987
 21
70.098721065904
  0
LINE
  8
画層3
  6
DASHDOT
 10
38.8663806070987
 20
65.098721065904
 11
38.8663806070987
 21
75.098721065904
  0
LINE
  8
画層3
  6
DASHDOT
 10
41.8663806070987
 20
98.098721065904
 11
31.8663806070987
 21
98.098721065904
  0
LINE
  8
画層3
  6
DASHDOT
 10
41.8663806070987
 20
70.098721065904
 11
31.8663806070987
 21
70.098721065904
  0
LINE
  8
画層3
  6
CONTINUOUS
 10
28.3663806070987
 20
64.098721065904
 11
28.3663806070987
 21
104.098721065904
  0
LINE
  8
画層3
  6
CONTINUOUS
 10
44.8663806070987
 20
104.098721065904
 11
44.8663806070987
 21
96.098721065904
  0
LINE
  8
画層3
  6
CONTINUOUS
 10
44.8663806070987
 20
72.098721065904
 11
44.8663806070987
 21
64.098721065904
  0
LINE
  8
画層3
  6
CONTINUOUS
 10
28.8663806070987
 20
96.098721065904
 11
28.3663806070987
 21
96.098721065904
  0
LINE
  8
画層3
  6
DASHDOT
 10
26.3663806070987
 20
100.098721065904
 11
31.0074170055794
 21
100.098721065904
  0
LINE
  8
画層3
  6
DASHDOT
 10
26.3663806070987
 20
68.098721065904
 11
31.2059266482006
 21
68.098721065904
  0
LINE
  8
画層3
  6
CONTINUOUS
 10
28.3663806070987
 20
104.098721065904
 11
44.8663806070987
 21
104.098721065904
  0
LINE
  8
画層3
  6
CONTINUOUS
 10
44.8663806070987
 20
64.098721065904
 11
28.3663806070987
 21
64.098721065904
  0
LINE
  8
画層3
  6
CONTINUOUS
 10
28.8663806070987
 20
96.098721065904
 11
28.8663806070987
 21
71.08027186397
  0
LINE
  8
画層3
  6
CONTINUOUS
 10
28.8663806070987
 20
96.098721065904
 11
28.8663806070987
 21
97.098721065904
  0
LINE
  8
画層3
  6
DASHDOT
 10
69.3413806070987
 20
42.098721065904
 11
77.7966082720467
 21
42.098721065904
  0
LINE
  8
画層3
  6
DASHDOT
 10
70.0842125435786
 20
44.098721065904
 11
77.0114251043606
 21
44.098721065904
  0
LINE
  8
画層3
  6
DASHDOT
 10
104.631380607099
 20
84.098721065904
 11
131.84480074334
 21
84.098721065904
  0
LINE
  8
画層3
  6
DASHDOT
 10
48.1013806070987
 20
84.098721065904
 11
18.6197139404321
 21
84.098721065904
  0
CIRCLE
  8
画層3
  6
CONTINUOUS
 10
174.270416851086
 20
93.452217998419
 40
1
  0
CIRCLE
  8
画層3
  6
CONTINUOUS
 10
174.270416851086
 20
69.452217998419
 40
1
  0
POLYLINE
  8
画層3
  6
CONTINUOUS
 10
0.0
 20
0.0
 30
0.0
 66
1
 70
     1
  0
VERTEX
  8
画層3
 10
158.270416851086
  20
61.452217998419
  0
VERTEX
  8
画層3
 10
189.270416851086
  20
61.452217998419
  0
VERTEX
  8
画層3
 10
189.270416851086
  20
101.452217998419
  0
VERTEX
  8
画層3
 10
158.270416851086
  20
101.452217998419
  0
SEQEND
100
AcDbEntity
  8
画層3
  0
LINE
  8
画層3
  6
CONTINUOUS
 10
158.270416851086
 20
93.452217998419
 11
173.270416851086
 21
93.452217998419
  0
LINE
  8
画層3
  6
CONTINUOUS
 10
158.270416851086
 20
69.452217998419
 11
173.270416851086
 21
69.452217998419
  0
LINE
  8
画層3
  6
DOT
 10
174.270416851086
 20
101.452217998419
 11
174.270416851086
 21
94.452217998419
  0
LINE
  8
画層3
  6
DOT
 10
174.270416851086
 20
68.452217998419
 11
174.270416851086
 21
61.452217998419
  0
CIRCLE
  8
画層3
  6
CONTINUOUS
 10
181.770416851086
 20
97.452217998419
 40
2
  0
LINE
  8
画層3
  6
DASHDOT
 10
176.770416851086
 20
97.452217998419
 11
186.770416851086
 21
97.452217998419
  0
LINE
  8
画層3
  6
DASHDOT
 10
181.770416851086
 20
92.452217998419
 11
181.770416851086
 21
102.452217998419
  0
CIRCLE
  8
画層3
  6
CONTINUOUS
 10
181.770416851086
 20
65.452217998419
 40
2
  0
LINE
  8
画層3
  6
DASHDOT
 10
176.770416851086
 20
65.452217998419
 11
186.770416851086
 21
65.452217998419
  0
LINE
  8
画層3
  6
DASHDOT
 10
181.770416851086
 20
60.452217998419
 11
181.770416851086
 21
70.452217998419
  0
LINE
  8
画層3
  6
DASHDOT
 10
159.270416851086
 20
95.452217998419
 11
169.270416851086
 21
95.452217998419
  0
LINE
  8
画層3
  6
DASHDOT
 10
159.270416851086
 20
67.452217998419
 11
169.270416851086
 21
67.452217998419
  0
CIRCLE
  8
画層3
  6
CONTINUOUS
 10
166.270416851086
 20
95.452217998419
 40
0.9
  0
LINE
  8
画層3
  6
DASHDOT
 10
161.270416851086
 20
95.452217998419
 11
171.270416851086
 21
95.452217998419
  0
LINE
  8
画層3
  6
DASHDOT
 10
166.270416851086
 20
90.452217998419
 11
166.270416851086
 21
100.452217998419
  0
CIRCLE
  8
画層3
  6
CONTINUOUS
 10
166.270416851086
 20
67.452217998419
 40
0.9
  0
LINE
  8
画層3
  6
DASHDOT
 10
161.270416851086
 20
67.452217998419
 11
171.270416851086
 21
67.452217998419
  0
LINE
  8
画層3
  6
DASHDOT
 10
166.270416851086
 20
62.452217998419
 11
166.270416851086
 21
72.452217998419
  0
LINE
  8
画層3
  6
DASHDOT
 10
155.035416851086
 20
81.452217998419
 11
194.165416851092
 21
81.452217998419
  0
LINE
  8
画層3
  6
DASHDOT
 10
173.270416851086
 20
69.452217998419
 11
175.270416851086
 21
69.452217998419
  0
LINE
  8
画層3
  6
DASHDOT
 10
174.270416851086
 20
68.452217998419
 11
174.270416851086
 21
70.452217998419
  0
LINE
  8
画層3
  6
DASHDOT
 10
173.270416851086
 20
93.452217998419
 11
175.270416851086
 21
93.452217998419
  0
LINE
  8
画層3
  6
DASHDOT
 10
174.270416851086
 20
94.452217998419
 11
174.270416851086
 21
92.452217998419
  0
ARC
  8
画層3
  6
CONTINUOUS
 10
280.898129073356
 20
100.518721065904
 40
1
 50
180
 51
90
  0
LINE
  8
画層3
  6
CONTINUOUS
 10
295.898129073356
 20
68.518721065904
 11
295.898129073356
 21
108.518721065904
  0
LINE
  8
画層3
  6
CONTINUOUS
 10
264.898129073356
 20
100.518721065904
 11
264.898129073356
 21
76.518721065904
  0
LINE
  8
画層3
  6
CONTINUOUS
 10
264.898129073356
 20
100.518721065904
 11
279.898129073356
 21
100.518721065904
  0
LINE
  8
画層3
  6
CONTINUOUS
 10
264.898129073356
 20
76.518721065904
 11
279.898129073356
 21
76.518721065904
  0
LINE
  8
画層3
  6
DOT
 10
280.898129073356
 20
108.518721065904
 11
280.898129073356
 21
101.518721065904
  0
LINE
  8
画層3
  6
DOT
 10
280.898129073356
 20
75.518721065904
 11
280.898129073356
 21
68.518721065904
  0
CIRCLE
  8
画層3
  6
CONTINUOUS
 10
288.398129073356
 20
104.518721065904
 40
2
  0
LINE
  8
画層3
  6
DASHDOT
 10
283.398129073356
 20
104.518721065904
 11
293.398129073356
 21
104.518721065904
  0
LINE
  8
画層3
  6
DASHDOT
 10
288.398129073356
 20
99.518721065904
 11
288.398129073356
 21
109.518721065904
  0
CIRCLE
  8
画層3
  6
CONTINUOUS
 10
288.398129073356
 20
72.518721065904
 40
2
  0
LINE
  8
画層3
  6
DASHDOT
 10
283.398129073356
 20
72.518721065904
 11
293.398129073356
 21
72.518721065904
  0
LINE
  8
画層3
  6
DASHDOT
 10
288.398129073356
 20
67.518721065904
 11
288.398129073356
 21
77.518721065904
  0
LINE
  8
画層3
  6
DASHDOT
 10
261.663129073356
 20
88.518721065904
 11
300.793129073362
 21
88.518721065904
  0
LINE
  8
画層3
  6
CONTINUOUS
 10
264.898129073356
 20
76.518721065904
 11
279.898129073356
 21
76.518721065904
  0
ARC
  8
画層3
  6
CONTINUOUS
 10
280.898129073356
 20
38.518721065904
 40
0.5
 50
180
 51
-90
  0
LINE
  8
画層3
  6
CONTINUOUS
 10
280.398129073356
 20
54.518721065904
 11
280.898129073356
 21
54.518721065904
  0
LINE
  8
画層3
  6
CONTINUOUS
 10
280.898129073356
 20
54.518721065904
 11
280.898129073356
 21
38.518721065904
  0
LINE
  8
画層3
  6
CONTINUOUS
 10
280.898129073356
 20
38.518721065904
 11
295.898129073356
 21
38.518721065904
  0
LINE
  8
画層3
  6
CONTINUOUS
 10
295.898129073356
 20
38.518721065904
 11
295.898129073356
 21
38.018721065904
  0
LINE
  8
画層3
  6
CONTINUOUS
 10
295.898129073356
 20
38.018721065904
 11
280.898129073356
 21
38.018721065904
  0
LINE
  8
画層3
  6
CONTINUOUS
 10
280.398129073356
 20
38.518721065904
 11
280.398129073356
 21
54.518721065904
  0
LINE
  8
画層3
  6
CONTINUOUS
 10
264.898129073356
 20
38.518721065904
 11
280.398129073356
 21
38.518721065904
  0
LINE
  8
画層3
  6
CONTINUOUS
 10
264.898129073356
 20
38.518721065904
 11
264.898129073356
 21
38.018721065904
  0
LINE
  8
画層3
  6
CONTINUOUS
 10
264.898129073356
 20
38.018721065904
 11
280.898129073356
 21
38.018721065904
  0
LINE
  8
画層3
  6
CONTINUOUS
 10
280.398129073356
 20
108.518721065904
 11
280.398129073356
 21
100.518721065904
  0
LINE
  8
画層3
  6
CONTINUOUS
 10
280.398129073356
 20
100.518721065904
 11
280.898129073356
 21
100.518721065904
  0
LINE
  8
画層3
  6
CONTINUOUS
 10
280.898129073356
 20
100.518721065904
 11
280.898129073356
 21
108.518721065904
  0
LINE
  8
画層3
  6
CONTINUOUS
 10
295.898129073356
 20
108.518721065904
 11
280.398129073356
 21
108.518721065904
  0
ARC
  8
画層3
  6
CONTINUOUS
 10
280.898129073356
 20
76.518721065904
 40
1
 50
-90
 51
180
  0
LINE
  8
画層3
  6
DOT
 10
280.898129073356
 20
68.518721065904
 11
280.898129073356
 21
75.518721065904
  0
LINE
  8
画層3
  6
CONTINUOUS
 10
280.398129073356
 20
68.518721065904
 11
280.398129073356
 21
76.518721065904
  0
LINE
  8
画層3
  6
CONTINUOUS
 10
280.398129073356
 20
76.518721065904
 11
280.898129073356
 21
76.518721065904
  0
LINE
  8
画層3
  6
CONTINUOUS
 10
280.898129073356
 20
76.518721065904
 11
280.898129073356
 21
68.518721065904
  0
LINE
  8
画層3
  6
CONTINUOUS
 10
295.898129073356
 20
68.518721065904
 11
280.398129073356
 21
68.518721065904
  0
ARC
  8
画層3
  6
CONTINUOUS
 10
330.898129073356
 20
100.518721065904
 40
1
 50
90
 51
180
  0
ARC
  8
画層3
  6
CONTINUOUS
 10
330.898129073356
 20
76.518721065904
 40
1
 50
180
 51
-90
  0
LINE
  8
画層3
  6
CONTINUOUS
 10
314.898129073356
 20
100.518721065904
 11
329.898129073356
 21
100.518721065904
  0
LINE
  8
画層3
  6
CONTINUOUS
 10
314.898129073356
 20
76.518721065904
 11
329.898129073356
 21
76.518721065904
  0
LINE
  8
画層3
  6
DOT
 10
330.898129073356
 20
108.518721065904
 11
330.898129073356
 21
101.518721065904
  0
LINE
  8
画層3
  6
DOT
 10
330.898129073356
 20
75.518721065904
 11
330.898129073356
 21
68.518721065904
  0
CIRCLE
  8
画層3
  6
CONTINUOUS
 10
320.898129073356
 20
102.518721065904
 40
0.9
  0
LINE
  8
画層3
  6
DASHDOT
 10
315.898129073356
 20
102.518721065904
 11
325.898129073356
 21
102.518721065904
  0
LINE
  8
画層3
  6
DASHDOT
 10
320.898129073356
 20
97.518721065904
 11
320.898129073356
 21
107.518721065904
  0
CIRCLE
  8
画層3
  6
CONTINUOUS
 10
320.898129073356
 20
74.518721065904
 40
0.9
  0
LINE
  8
画層3
  6
DASHDOT
 10
315.898129073356
 20
74.518721065904
 11
325.898129073356
 21
74.518721065904
  0
LINE
  8
画層3
  6
DASHDOT
 10
320.898129073356
 20
69.518721065904
 11
320.898129073356
 21
79.518721065904
  0
LINE
  8
画層3
  6
CONTINUOUS
 10
330.898129073356
 20
108.518721065904
 11
330.898129073356
 21
68.518721065904
  0
LINE
  8
画層3
  6
CONTINUOUS
 10
331.398129073356
 20
68.518721065904
 11
331.398129073356
 21
108.518721065904
  0
LINE
  8
画層3
  6
CONTINUOUS
 10
314.898129073356
 20
108.518721065904
 11
314.898129073356
 21
100.518721065904
  0
LINE
  8
画層3
  6
CONTINUOUS
 10
314.898129073356
 20
76.518721065904
 11
314.898129073356
 21
68.518721065904
  0
LINE
  8
画層3
  6
CONTINUOUS
 10
330.898129073356
 20
100.518721065904
 11
331.398129073356
 21
100.518721065904
  0
LINE
  8
画層3
  6
DASHDOT
 10
333.398129073356
 20
104.518721065904
 11
328.757092674876
 21
104.518721065904
  0
LINE
  8
画層3
  6
DASHDOT
 10
333.398129073356
 20
72.518721065904
 11
328.558583032254
 21
72.518721065904
  0
LINE
  8
画層3
  6
CONTINUOUS
 10
331.398129073356
 20
108.518721065904
 11
314.898129073356
 21
108.518721065904
  0
LINE
  8
画層3
  6
CONTINUOUS
 10
314.898129073356
 20
68.518721065904
 11
331.398129073356
 21
68.518721065904
  0
ARC
  8
画層3
  6
CONTINUOUS
 10
235.898129073356
 20
100.518721065904
 40
1
 50
0
 51
90
  0
ARC
  8
画層3
  6
CONTINUOUS
 10
235.898129073356
 20
76.518721065904
 40
1
 50
-90
 51
0
  0
LINE
  8
画層3
  6
CONTINUOUS
 10
251.898129073356
 20
100.518721065904
 11
236.898129073356
 21
100.518721065904
  0
LINE
  8
画層3
  6
CONTINUOUS
 10
251.898129073356
 20
76.518721065904
 11
236.898129073356
 21
76.518721065904
  0
LINE
  8
画層3
  6
DOT
 10
235.898129073356
 20
108.518721065904
 11
235.898129073356
 21
101.518721065904
  0
LINE
  8
画層3
  6
DOT
 10
235.898129073356
 20
75.518721065904
 11
235.898129073356
 21
68.518721065904
  0
CIRCLE
  8
画層3
  6
CONTINUOUS
 10
245.898129073356
 20
102.518721065904
 40
0.9
  0
LINE
  8
画層3
  6
DASHDOT
 10
250.898129073356
 20
102.518721065904
 11
240.898129073356
 21
102.518721065904
  0
LINE
  8
画層3
  6
DASHDOT
 10
245.898129073356
 20
97.518721065904
 11
245.898129073356
 21
107.518721065904
  0
CIRCLE
  8
画層3
  6
CONTINUOUS
 10
245.898129073356
 20
74.518721065904
 40
0.9
  0
LINE
  8
画層3
  6
DASHDOT
 10
250.898129073356
 20
74.518721065904
 11
240.898129073356
 21
74.518721065904
  0
LINE
  8
画層3
  6
DASHDOT
 10
245.898129073356
 20
69.518721065904
 11
245.898129073356
 21
79.518721065904
  0
LINE
  8
画層3
  6
DASHDOT
 10
248.898129073356
 20
74.518721065904
 11
238.898129073356
 21
74.518721065904
  0
LINE
  8
画層3
  6
CONTINUOUS
 10
235.398129073356
 20
68.518721065904
 11
235.398129073356
 21
108.518721065904
  0
LINE
  8
画層3
  6
CONTINUOUS
 10
251.898129073356
 20
108.518721065904
 11
251.898129073356
 21
100.518721065904
  0
LINE
  8
画層3
  6
CONTINUOUS
 10
251.898129073356
 20
76.518721065904
 11
251.898129073356
 21
68.518721065904
  0
LINE
  8
画層3
  6
CONTINUOUS
 10
235.898129073356
 20
100.518721065904
 11
235.398129073356
 21
100.518721065904
  0
LINE
  8
画層3
  6
DASHDOT
 10
233.398129073356
 20
104.518721065904
 11
238.039165471837
 21
104.518721065904
  0
LINE
  8
画層3
  6
DASHDOT
 10
233.398129073356
 20
72.518721065904
 11
238.237675114458
 21
72.518721065904
  0
LINE
  8
画層3
  6
CONTINUOUS
 10
235.398129073356
 20
108.518721065904
 11
251.898129073356
 21
108.518721065904
  0
LINE
  8
画層3
  6
CONTINUOUS
 10
251.898129073356
 20
68.518721065904
 11
235.398129073356
 21
68.518721065904
  0
LINE
  8
画層3
  6
CONTINUOUS
 10
235.898129073356
 20
100.518721065904
 11
235.898129073356
 21
75.50027186397
  0
LINE
  8
画層3
  6
CONTINUOUS
 10
235.898129073356
 20
100.518721065904
 11
235.898129073356
 21
101.518721065904
  0
LINE
  8
画層3
  6
DASHDOT
 10
276.373129073356
 20
46.518721065904
 11
284.828356738304
 21
46.518721065904
  0
LINE
  8
画層3
  6
DASHDOT
 10
277.115961009836
 20
48.518721065904
 11
284.043173570618
 21
48.518721065904
  0
LINE
  8
画層3
  6
DASHDOT
 10
311.663129073356
 20
88.518721065904
 11
338.876549209598
 21
88.518721065904
  0
LINE
  8
画層3
  6
DASHDOT
 10
255.133129073356
 20
88.518721065904
 11
225.65146240669
 21
88.518721065904
  0
CIRCLE
  8
画層3
  6
CONTINUOUS
 10
380.474005808141
 20
94.348721065904
 40
1
  0
CIRCLE
  8
画層3
  6
CONTINUOUS
 10
380.474005808141
 20
70.348721065904
 40
1
  0
POLYLINE
  8
画層3
  6
CONTINUOUS
 10
0.0
 20
0.0
 30
0.0
 66
1
 70
     1
  0
VERTEX
  8
画層3
 10
364.474005808141
  20
62.348721065904
  0
VERTEX
  8
画層3
 10
395.474005808141
  20
62.348721065904
  0
VERTEX
  8
画層3
 10
395.474005808141
  20
102.348721065904
  0
VERTEX
  8
画層3
 10
364.474005808141
  20
102.348721065904
  0
SEQEND
100
AcDbEntity
  8
画層3
  0
LINE
  8
画層3
  6
CONTINUOUS
 10
364.474005808141
 20
94.348721065904
 11
379.474005808141
 21
94.348721065904
  0
LINE
  8
画層3
  6
CONTINUOUS
 10
364.474005808141
 20
70.348721065904
 11
379.474005808141
 21
70.348721065904
  0
LINE
  8
画層3
  6
DOT
 10
380.474005808141
 20
102.348721065904
 11
380.474005808141
 21
95.348721065904
  0
LINE
  8
画層3
  6
DOT
 10
380.474005808141
 20
69.348721065904
 11
380.474005808141
 21
62.348721065904
  0
CIRCLE
  8
画層3
  6
CONTINUOUS
 10
387.974005808141
 20
98.348721065904
 40
2
  0
LINE
  8
画層3
  6
DASHDOT
 10
382.974005808141
 20
98.348721065904
 11
392.974005808141
 21
98.348721065904
  0
LINE
  8
画層3
  6
DASHDOT
 10
387.974005808141
 20
93.348721065904
 11
387.974005808141
 21
103.348721065904
  0
CIRCLE
  8
画層3
  6
CONTINUOUS
 10
387.974005808141
 20
66.348721065904
 40
2
  0
LINE
  8
画層3
  6
DASHDOT
 10
382.974005808141
 20
66.348721065904
 11
392.974005808141
 21
66.348721065904
  0
LINE
  8
画層3
  6
DASHDOT
 10
387.974005808141
 20
61.348721065904
 11
387.974005808141
 21
71.348721065904
  0
CIRCLE
  8
画層3
  6
CONTINUOUS
 10
370.474005808141
 20
96.348721065904
 40
0.9
  0
LINE
  8
画層3
  6
DASHDOT
 10
365.474005808141
 20
96.348721065904
 11
375.474005808141
 21
96.348721065904
  0
LINE
  8
画層3
  6
DASHDOT
 10
370.474005808141
 20
91.348721065904
 11
370.474005808141
 21
101.348721065904
  0
CIRCLE
  8
画層3
  6
CONTINUOUS
 10
370.474005808141
 20
68.348721065904
 40
0.9
  0
LINE
  8
画層3
  6
DASHDOT
 10
365.474005808141
 20
68.348721065904
 11
375.474005808141
 21
68.348721065904
  0
LINE
  8
画層3
  6
DASHDOT
 10
370.474005808141
 20
63.348721065904
 11
370.474005808141
 21
73.348721065904
  0
LINE
  8
画層3
  6
DASHDOT
 10
361.239005808141
 20
82.348721065904
 11
400.369005808147
 21
82.348721065904
  0
LINE
  8
画層3
  6
DASHDOT
 10
379.474005808141
 20
70.348721065904
 11
381.474005808141
 21
70.348721065904
  0
LINE
  8
画層3
  6
DASHDOT
 10
380.474005808141
 20
69.348721065904
 11
380.474005808141
 21
71.348721065904
  0
LINE
  8
画層3
  6
DASHDOT
 10
379.474005808141
 20
94.348721065904
 11
381.474005808141
 21
94.348721065904
  0
LINE
  8
画層3
  6
DASHDOT
 10
380.474005808141
 20
95.348721065904
 11
380.474005808141
 21
93.348721065904
  0
LINE
  8
画層15
  6
CONTINUOUS
 10
158.270416851086
 20
101.702217998419
 11
158.270416851086
 21
105.852217998419
  0
LINE
  8
画層15
  6
CONTINUOUS
 10
158.270416851086
 20
105.352217998419
 11
166.270416851086
 21
105.352217998419
  0
POLYLINE
  8
画層15
  6
CONTINUOUS
 10
0.0
 20
0.0
 30
0.0
 66
1
 70
     1
  0
VERTEX
  8
画層15
 10
158.270416851086
  20
105.352217998419
  0
VERTEX
  8
画層15
 10
159.719305590519
  20
105.740446566073
  0
VERTEX
  8
画層15
 10
159.719305590519
  20
104.963989430765
  0
SEQEND
100
AcDbEntity
  8
画層15
  0
POLYLINE
  8
画層15
  6
CONTINUOUS
 10
0.0
 20
0.0
 30
0.0
 66
1
 70
     1
  0
VERTEX
  8
画層15
 10
166.270416851086
  20
105.352217998419
  0
VERTEX
  8
画層15
 10
164.821528111652
  20
104.963989430765
  0
VERTEX
  8
画層15
 10
164.821528111652
  20
105.740446566073
  0
SEQEND
100
AcDbEntity
  8
画層15
  0
TEXT
  8
画層15
 62
116
  6
CONTINUOUS
 62
116
 10
161.270416851086
 20
105.602217998419
 40
4
  1
8
  7
Font_0
 72
1
 11
162.270416851086
 21
109.602217998419
 73
3
  0
LINE
  8
画層15
  6
CONTINUOUS
 10
166.270416851086
 20
100.702217998419
 11
166.270416851086
 21
105.852217998419
  0
LINE
  8
画層15
  6
CONTINUOUS
 10
174.270416851086
 20
101.702217998419
 11
174.270416851086
 21
105.852217998419
  0
LINE
  8
画層15
  6
CONTINUOUS
 10
174.270416851086
 20
105.352217998419
 11
166.270416851086
 21
105.352217998419
  0
POLYLINE
  8
画層15
  6
CONTINUOUS
 10
0.0
 20
0.0
 30
0.0
 66
1
 70
     1
  0
VERTEX
  8
画層15
 10
174.270416851086
  20
105.352217998419
  0
VERTEX
  8
画層15
 10
172.821528111652
  20
104.963989430765
  0
VERTEX
  8
画層15
 10
172.821528111652
  20
105.740446566073
  0
SEQEND
100
AcDbEntity
  8
画層15
  0
POLYLINE
  8
画層15
  6
CONTINUOUS
 10
0.0
 20
0.0
 30
0.0
 66
1
 70
     1
  0
VERTEX
  8
画層15
 10
166.270416851086
  20
105.352217998419
  0
VERTEX
  8
画層15
 10
167.719305590519
  20
105.740446566073
  0
VERTEX
  8
画層15
 10
167.719305590519
  20
104.963989430765
  0
SEQEND
100
AcDbEntity
  8
画層15
  0
TEXT
  8
画層15
 62
116
  6
CONTINUOUS
 62
116
 10
169.270416851086
 20
105.602217998419
 40
4
  1
8
  7
Font_0
 72
1
 11
170.270416851086
 21
109.602217998419
 73
3
  0
LINE
  8
画層15
  6
CONTINUOUS
 10
166.270416851086
 20
101.702217998419
 11
166.270416851086
 21
105.852217998419
  0
LINE
  8
画層15
  6
CONTINUOUS
 10
174.270416851086
 20
101.702217998419
 11
174.270416851086
 21
105.852217998419
  0
LINE
  8
画層15
  6
CONTINUOUS
 10
174.270416851086
 20
105.352217998419
 11
181.770416851086
 21
105.352217998419
  0
POLYLINE
  8
画層15
  6
CONTINUOUS
 10
0.0
 20
0.0
 30
0.0
 66
1
 70
     1
  0
VERTEX
  8
画層15
 10
174.270416851086
  20
105.352217998419
  0
VERTEX
  8
画層15
 10
175.719305590519
  20
105.740446566073
  0
VERTEX
  8
画層15
 10
175.719305590519
  20
104.963989430765
  0
SEQEND
100
AcDbEntity
  8
画層15
  0
POLYLINE
  8
画層15
  6
CONTINUOUS
 10
0.0
 20
0.0
 30
0.0
 66
1
 70
     1
  0
VERTEX
  8
画層15
 10
181.770416851086
  20
105.352217998419
  0
VERTEX
  8
画層15
 10
180.321528111652
  20
104.963989430765
  0
VERTEX
  8
画層15
 10
180.321528111652
  20
105.740446566073
  0
SEQEND
100
AcDbEntity
  8
画層15
  0
TEXT
  8
画層15
 62
116
  6
CONTINUOUS
 62
116
 10
175.020416851086
 20
105.602217998419
 40
4
  1
7.5
  7
Font_0
 72
1
 11
178.020416851086
 21
109.602217998419
 73
3
  0
LINE
  8
画層15
  6
CONTINUOUS
 10
181.770416851086
 20
101.702217998419
 11
181.770416851086
 21
105.852217998419
  0
LINE
  8
画層15
  6
CONTINUOUS
 10
189.254344536866
 20
100.602217998419
 11
189.254344536866
 21
105.852217998419
  0
LINE
  8
画層15
  6
CONTINUOUS
 10
181.770416851086
 20
99.702217998419
 11
181.770416851086
 21
105.852217998419
  0
LINE
  8
画層15
  6
CONTINUOUS
 10
158.270416851086
 20
99.053929438419
 11
158.270416851086
 21
113.723721065904
  0
LINE
  8
画層15
  6
CONTINUOUS
 10
158.270416851086
 20
113.223721065904
 11
189.270416851086
 21
113.223721065904
  0
POLYLINE
  8
画層15
  6
CONTINUOUS
 10
0.0
 20
0.0
 30
0.0
 66
1
 70
     1
  0
VERTEX
  8
画層15
 10
158.270416851086
  20
113.223721065904
  0
VERTEX
  8
画層15
 10
159.719305590519
  20
113.611949633557
  0
VERTEX
  8
画層15
 10
159.719305590519
  20
112.83549249825
  0
SEQEND
100
AcDbEntity
  8
画層15
  0
POLYLINE
  8
画層15
  6
CONTINUOUS
 10
0.0
 20
0.0
 30
0.0
 66
1
 70
     1
  0
VERTEX
  8
画層15
 10
189.270416851086
  20
113.223721065904
  0
VERTEX
  8
画層15
 10
187.821528111652
  20
112.83549249825
  0
VERTEX
  8
画層15
 10
187.821528111652
  20
113.611949633557
  0
SEQEND
100
AcDbEntity
  8
画層15
  0
TEXT
  8
画層15
 62
116
  6
CONTINUOUS
 62
116
 10
171.770416851086
 20
113.473721065904
 40
4
  1
31
  7
Font_0
 72
1
 11
173.770416851086
 21
117.473721065904
 73
3
  0
LINE
  8
画層15
  6
CONTINUOUS
 10
189.270416851086
 20
98.280777998419
 11
189.270416851086
 21
113.723721065904
  0
LINE
  8
画層15
  6
CONTINUOUS
 10
189.270416851086
 20
98.280777998419
 11
189.270416851086
 21
105.852217998419
  0
LINE
  8
画層15
  6
CONTINUOUS
 10
189.270416851086
 20
105.352217998419
 11
181.770416851086
 21
105.352217998419
  0
POLYLINE
  8
画層15
  6
CONTINUOUS
 10
0.0
 20
0.0
 30
0.0
 66
1
 70
     1
  0
VERTEX
  8
画層15
 10
189.270416851086
  20
105.352217998419
  0
VERTEX
  8
画層15
 10
187.821528111652
  20
104.963989430765
  0
VERTEX
  8
画層15
 10
187.821528111652
  20
105.740446566073
  0
SEQEND
100
AcDbEntity
  8
画層15
  0
POLYLINE
  8
画層15
  6
CONTINUOUS
 10
0.0
 20
0.0
 30
0.0
 66
1
 70
     1
  0
VERTEX
  8
画層15
 10
181.770416851086
  20
105.352217998419
  0
VERTEX
  8
画層15
 10
183.219305590519
  20
105.740446566073
  0
VERTEX
  8
画層15
 10
183.219305590519
  20
104.963989430765
  0
SEQEND
100
AcDbEntity
  8
画層15
  0
TEXT
  8
画層15
 62
116
  6
CONTINUOUS
 62
116
 10
182.520416851086
 20
105.602217998419
 40
4
  1
7.5
  7
Font_0
 72
1
 11
185.520416851086
 21
109.602217998419
 73
3
  0
LINE
  8
画層15
  6
CONTINUOUS
 10
181.770416851086
 20
99.702217998419
 11
181.770416851086
 21
105.852217998419
  0
LINE
  8
画層15
  6
CONTINUOUS
 10
187.020416851086
 20
65.452217998419
 11
199.754344536866
 21
65.452217998419
  0
LINE
  8
画層15
  6
CONTINUOUS
 10
199.254344536866
 20
65.452217998419
 11
199.254344536866
 21
97.452217998419
  0
POLYLINE
  8
画層15
  6
CONTINUOUS
 10
0.0
 20
0.0
 30
0.0
 66
1
 70
     1
  0
VERTEX
  8
画層15
 10
199.254344536866
  20
65.452217998419
  0
VERTEX
  8
画層15
 10
198.866115969212
  20
66.901106737853
  0
VERTEX
  8
画層15
 10
199.64257310452
  20
66.901106737853
  0
SEQEND
100
AcDbEntity
  8
画層15
  0
POLYLINE
  8
画層15
  6
CONTINUOUS
 10
0.0
 20
0.0
 30
0.0
 66
1
 70
     1
  0
VERTEX
  8
画層15
 10
199.254344536866
  20
97.452217998419
  0
VERTEX
  8
画層15
 10
199.64257310452
  20
96.003329258985
  0
VERTEX
  8
画層15
 10
198.866115969212
  20
96.003329258985
  0
SEQEND
100
AcDbEntity
  8
画層15
  0
TEXT
  8
画層15
 62
116
  6
CONTINUOUS
 62
116
 10
199.004344536866
 20
79.452217998419
 40
4
  1
32
  7
Font_0
 50
90
 72
1
 11
195.004344536866
 21
81.452217998419
 73
3
  0
LINE
  8
画層15
  6
CONTINUOUS
 10
187.020416851086
 20
97.452217998419
 11
199.754344536866
 21
97.452217998419
  0
LINE
  8
画層15
  6
CONTINUOUS
 10
189.520416851086
 20
61.452217998419
 11
207.457749444841
 21
61.452217998419
  0
LINE
  8
画層15
  6
CONTINUOUS
 10
206.957749444841
 20
61.452217998419
 11
206.957749444841
 21
101.452217998419
  0
POLYLINE
  8
画層15
  6
CONTINUOUS
 10
0.0
 20
0.0
 30
0.0
 66
1
 70
     1
  0
VERTEX
  8
画層15
 10
206.957749444841
  20
61.452217998419
  0
VERTEX
  8
画層15
 10
206.569520877188
  20
62.901106737853
  0
VERTEX
  8
画層15
 10
207.345978012495
  20
62.901106737853
  0
SEQEND
100
AcDbEntity
  8
画層15
  0
POLYLINE
  8
画層15
  6
CONTINUOUS
 10
0.0
 20
0.0
 30
0.0
 66
1
 70
     1
  0
VERTEX
  8
画層15
 10
206.957749444841
  20
101.452217998419
  0
VERTEX
  8
画層15
 10
207.345978012495
  20
100.003329258985
  0
VERTEX
  8
画層15
 10
206.569520877188
  20
100.003329258985
  0
SEQEND
100
AcDbEntity
  8
画層15
  0
TEXT
  8
画層15
 62
116
  6
CONTINUOUS
 62
116
 10
206.707749444841
 20
79.452217998419
 40
4
  1
40
  7
Font_0
 50
90
 72
1
 11
202.707749444841
 21
81.452217998419
 73
3
  0
LINE
  8
画層15
  6
CONTINUOUS
 10
189.504344536866
 20
101.452217998419
 11
207.457749444841
 21
101.452217998419
  0
LINE
  8
画層15
  6
CONTINUOUS
 10
158.020416851086
 20
69.452217998419
 11
151.207749444842
 21
69.452217998419
  0
LINE
  8
画層15
  6
CONTINUOUS
 10
151.707749444842
 20
69.452217998419
 11
151.707749444842
 21
93.452217998419
  0
POLYLINE
  8
画層15
  6
CONTINUOUS
 10
0.0
 20
0.0
 30
0.0
 66
1
 70
     1
  0
VERTEX
  8
画層15
 10
151.707749444842
  20
69.452217998419
  0
VERTEX
  8
画層15
 10
151.319520877188
  20
70.901106737853
  0
VERTEX
  8
画層15
 10
152.095978012496
  20
70.901106737853
  0
SEQEND
100
AcDbEntity
  8
画層15
  0
POLYLINE
  8
画層15
  6
CONTINUOUS
 10
0.0
 20
0.0
 30
0.0
 66
1
 70
     1
  0
VERTEX
  8
画層15
 10
151.707749444842
  20
93.452217998419
  0
VERTEX
  8
画層15
 10
152.095978012496
  20
92.003329258985
  0
VERTEX
  8
画層15
 10
151.319520877188
  20
92.003329258985
  0
SEQEND
100
AcDbEntity
  8
画層15
  0
TEXT
  8
画層15
 62
116
  6
CONTINUOUS
 62
116
 10
151.457749444842
 20
79.452217998419
 40
4
  1
24
  7
Font_0
 50
90
 72
1
 11
147.457749444842
 21
81.452217998419
 73
3
  0
LINE
  8
画層15
  6
CONTINUOUS
 10
158.020416851086
 20
93.452217998419
 11
151.207749444842
 21
93.452217998419
  0
LINE
  8
画層15
  6
CONTINUOUS
 10
161.020416851086
 20
67.452217998419
 11
143.754344536866
 21
67.452217998419
  0
LINE
  8
画層15
  6
CONTINUOUS
 10
144.254344536866
 20
67.452217998419
 11
144.254344536866
 21
95.452217998419
  0
POLYLINE
  8
画層15
  6
CONTINUOUS
 10
0.0
 20
0.0
 30
0.0
 66
1
 70
     1
  0
VERTEX
  8
画層15
 10
144.254344536866
  20
67.452217998419
  0
VERTEX
  8
画層15
 10
143.866115969212
  20
68.901106737853
  0
VERTEX
  8
画層15
 10
144.64257310452
  20
68.901106737853
  0
SEQEND
100
AcDbEntity
  8
画層15
  0
POLYLINE
  8
画層15
  6
CONTINUOUS
 10
0.0
 20
0.0
 30
0.0
 66
1
 70
     1
  0
VERTEX
  8
画層15
 10
144.254344536866
  20
95.452217998419
  0
VERTEX
  8
画層15
 10
144.64257310452
  20
94.003329258985
  0
VERTEX
  8
画層15
 10
143.866115969212
  20
94.003329258985
  0
SEQEND
100
AcDbEntity
  8
画層15
  0
TEXT
  8
画層15
 62
116
  6
CONTINUOUS
 62
116
 10
144.004344536866
 20
79.452217998419
 40
4
  1
28
  7
Font_0
 50
90
 72
1
 11
140.004344536866
 21
81.452217998419
 73
3
  0
LINE
  8
画層15
  6
CONTINUOUS
 10
161.020416851086
 20
95.452217998419
 11
143.754344536866
 21
95.452217998419
  0
LINE
  8
画層15
  6
CONTINUOUS
 10
180.455007805434
 20
63.945665960613
 11
183.085825896737
 21
66.958770036225
  0
POLYLINE
  8
画層15
  6
CONTINUOUS
 10
0.0
 20
0.0
 30
0.0
 66
1
 70
     1
  0
VERTEX
  8
画層15
 10
180.455007805434
  20
63.945665960613
  0
VERTEX
  8
画層15
 10
179.794510398303
  20
62.598913134303
  0
VERTEX
  8
画層15
 10
179.20962385857
  20
63.109592503975
  0
SEQEND
100
AcDbEntity
  8
画層15
  0
POLYLINE
  8
画層15
  6
CONTINUOUS
 10
0.0
 20
0.0
 30
0.0
 66
1
 70
     1
  0
VERTEX
  8
画層15
 10
183.085825896737
  20
66.958770036225
  0
VERTEX
  8
画層15
 10
183.746323303868
  20
68.305522862535
  0
VERTEX
  8
画層15
 10
184.331209843601
  20
67.794843492863
  0
SEQEND
100
AcDbEntity
  8
画層15
  0
TEXT
  8
画層15
 62
116
  6
CONTINUOUS
 62
116
 10
187.501438551793
 20
72.3961282992524
 40
4
  1
%%c4
  7
Font_0
 50
48.8749592640419
 72
2
 11
188.434561613137
 21
79.546602503974
 73
3
  0
LINE
  8
画層15
  6
CONTINUOUS
 10
183.085825896737
 20
66.958770036225
 11
191.635984693474
 21
76.751358281964
  0
LINE
  8
画層15
  6
CONTINUOUS
 10
180.455007805434
 20
63.945665960613
 11
178.481894236956
 21
61.685837903904
  0
LINE
  8
画層15
  6
CONTINUOUS
 10
173.537657379939
 20
94.132705733389
 11
175.003176322232
 21
92.771730263449
  0
POLYLINE
  8
画層15
  6
CONTINUOUS
 10
0.0
 20
0.0
 30
0.0
 66
1
 70
     1
  0
VERTEX
  8
画層15
 10
173.537657379939
  20
94.132705733389
  0
VERTEX
  8
画層15
 10
172.211785654828
  20
94.834178589993
  0
VERTEX
  8
画層15
 10
172.740155212135
  20
95.403134909829
  0
SEQEND
100
AcDbEntity
  8
画層15
  0
POLYLINE
  8
画層15
  6
CONTINUOUS
 10
0.0
 20
0.0
 30
0.0
 66
1
 70
     1
  0
VERTEX
  8
画層15
 10
175.003176322232
  20
92.771730263449
  0
VERTEX
  8
画層15
 10
176.329048047343
  20
92.070257406845
  0
VERTEX
  8
画層15
 10
175.800678490036
  20
91.501301087009
  0
SEQEND
100
AcDbEntity
  8
画層15
  0
TEXT
  8
画層15
 62
116
  6
CONTINUOUS
 62
116
 10
180.302614554
 20
88.1915059864423
 40
4
  1
%%c2
  7
Font_0
 50
317.118231859534
 72
2
 11
187.421122320761
 21
87.039617461206
 73
3
  0
LINE
  8
画層15
  6
CONTINUOUS
 10
175.003176322232
 20
92.771730263449
 11
184.529049447136
 21
83.925389708834
  0
LINE
  8
画層15
  6
CONTINUOUS
 10
173.537657379939
 20
94.132705733389
 11
171.3393789665
 21
96.174168938301
  0
LINE
  8
画層15
  6
CONTINUOUS
 10
166.868171106131
 20
68.125040300796
 11
165.672662596041
 21
66.779395696042
  0
POLYLINE
  8
画層15
  6
CONTINUOUS
 10
0.0
 20
0.0
 30
0.0
 66
1
 70
     1
  0
VERTEX
  8
画層15
 10
166.868171106131
  20
68.125040300796
  0
VERTEX
  8
画層15
 10
167.540249517626
  20
69.466051340572
  0
VERTEX
  8
画層15
 10
168.120713603709
  20
68.95035072225
  0
SEQEND
100
AcDbEntity
  8
画層15
  0
POLYLINE
  8
画層15
  6
CONTINUOUS
 10
0.0
 20
0.0
 30
0.0
 66
1
 70
     1
  0
VERTEX
  8
画層15
 10
165.672662596041
  20
66.779395696042
  0
VERTEX
  8
画層15
 10
165.000584184545
  20
65.438384656266
  0
VERTEX
  8
画層15
 10
164.420120098462
  20
65.954085274588
  0
SEQEND
100
AcDbEntity
  8
画層15
  0
TEXT
  8
画層15
 62
116
  6
CONTINUOUS
 62
116
 10
154.859025200136
 20
54.9841531690781
 40
4
  1
%%c1.8
  7
Font_0
 50
48.3812115991564
 72
2
 11
158.510417801184
 21
65.116642106798
 73
3
  0
LINE
  8
画層15
  6
CONTINUOUS
 10
165.672662596041
 20
66.779395696042
 11
153.717577495141
 21
53.322949648506
  0
LINE
  8
画層15
  6
CONTINUOUS
 10
166.868171106131
 20
68.125040300796
 11
168.860685289614
 21
70.367781308718
  0
TEXT
  8
画層15
 62
116
  6
CONTINUOUS
 62
116
 10
162.827749444842
 20
51.203721065904
 40
6
  1
A5052　ｔ0.5
  7
Font_0
 72
1
 11
180.827749444842
 21
54.203721065904
 73
2
  0
LINE
  8
画層15
  6
CONTINUOUS
 10
364.474005808141
 20
102.598721065904
 11
364.474005808141
 21
105.852217998419
  0
LINE
  8
画層15
  6
CONTINUOUS
 10
364.474005808141
 20
105.352217998419
 11
370.474005808141
 21
105.352217998419
  0
POLYLINE
  8
画層15
  6
CONTINUOUS
 10
0.0
 20
0.0
 30
0.0
 66
1
 70
     1
  0
VERTEX
  8
画層15
 10
364.474005808141
  20
105.352217998419
  0
VERTEX
  8
画層15
 10
365.922894547574
  20
105.740446566073
  0
VERTEX
  8
画層15
 10
365.922894547574
  20
104.963989430765
  0
SEQEND
100
AcDbEntity
  8
画層15
  0
POLYLINE
  8
画層15
  6
CONTINUOUS
 10
0.0
 20
0.0
 30
0.0
 66
1
 70
     1
  0
VERTEX
  8
画層15
 10
370.474005808141
  20
105.352217998419
  0
VERTEX
  8
画層15
 10
369.025117068707
  20
104.963989430765
  0
VERTEX
  8
画層15
 10
369.025117068707
  20
105.740446566073
  0
SEQEND
100
AcDbEntity
  8
画層15
  0
TEXT
  8
画層15
 62
116
  6
CONTINUOUS
 62
116
 10
366.474005808141
 20
105.602217998419
 40
4
  1
6
  7
Font_0
 72
1
 11
367.474005808141
 21
109.602217998419
 73
3
  0
LINE
  8
画層15
  6
CONTINUOUS
 10
370.474005808141
 20
101.598721065904
 11
370.474005808141
 21
105.852217998419
  0
LINE
  8
画層15
  6
CONTINUOUS
 10
370.474005808141
 20
101.598721065904
 11
370.474005808141
 21
105.852217998419
  0
LINE
  8
画層15
  6
CONTINUOUS
 10
370.474005808141
 20
105.352217998419
 11
380.474005808141
 21
105.352217998419
  0
POLYLINE
  8
画層15
  6
CONTINUOUS
 10
0.0
 20
0.0
 30
0.0
 66
1
 70
     1
  0
VERTEX
  8
画層15
 10
370.474005808141
  20
105.352217998419
  0
VERTEX
  8
画層15
 10
371.922894547574
  20
105.740446566073
  0
VERTEX
  8
画層15
 10
371.922894547574
  20
104.963989430765
  0
SEQEND
100
AcDbEntity
  8
画層15
  0
POLYLINE
  8
画層15
  6
CONTINUOUS
 10
0.0
 20
0.0
 30
0.0
 66
1
 70
     1
  0
VERTEX
  8
画層15
 10
380.474005808141
  20
105.352217998419
  0
VERTEX
  8
画層15
 10
379.025117068707
  20
104.963989430765
  0
VERTEX
  8
画層15
 10
379.025117068707
  20
105.740446566073
  0
SEQEND
100
AcDbEntity
  8
画層15
  0
TEXT
  8
画層15
 62
116
  6
CONTINUOUS
 62
116
 10
373.474005808141
 20
105.602217998419
 40
4
  1
10
  7
Font_0
 72
1
 11
375.474005808141
 21
109.602217998419
 73
3
  0
LINE
  8
画層15
  6
CONTINUOUS
 10
380.474005808141
 20
102.598721065904
 11
380.474005808141
 21
105.852217998419
  0
LINE
  8
画層15
  6
CONTINUOUS
 10
380.474005808141
 20
102.598721065904
 11
380.474005808141
 21
105.852217998419
  0
LINE
  8
画層15
  6
CONTINUOUS
 10
380.474005808141
 20
105.352217998419
 11
387.974005808141
 21
105.352217998419
  0
POLYLINE
  8
画層15
  6
CONTINUOUS
 10
0.0
 20
0.0
 30
0.0
 66
1
 70
     1
  0
VERTEX
  8
画層15
 10
380.474005808141
  20
105.352217998419
  0
VERTEX
  8
画層15
 10
381.922894547574
  20
105.740446566073
  0
VERTEX
  8
画層15
 10
381.922894547574
  20
104.963989430765
  0
SEQEND
100
AcDbEntity
  8
画層15
  0
POLYLINE
  8
画層15
  6
CONTINUOUS
 10
0.0
 20
0.0
 30
0.0
 66
1
 70
     1
  0
VERTEX
  8
画層15
 10
387.974005808141
  20
105.352217998419
  0
VERTEX
  8
画層15
 10
386.525117068707
  20
104.963989430765
  0
VERTEX
  8
画層15
 10
386.525117068707
  20
105.740446566073
  0
SEQEND
100
AcDbEntity
  8
画層15
  0
TEXT
  8
画層15
 62
116
  6
CONTINUOUS
 62
116
 10
381.224005808141
 20
105.602217998419
 40
4
  1
7.5
  7
Font_0
 72
1
 11
384.224005808141
 21
109.602217998419
 73
3
  0
LINE
  8
画層15
  6
CONTINUOUS
 10
387.974005808141
 20
102.598721065904
 11
387.974005808141
 21
105.852217998419
  0
LINE
  8
画層15
  6
CONTINUOUS
 10
387.974005808141
 20
102.598721065904
 11
387.974005808141
 21
105.852217998419
  0
LINE
  8
画層15
  6
CONTINUOUS
 10
387.974005808141
 20
105.352217998419
 11
395.474005808141
 21
105.352217998419
  0
POLYLINE
  8
画層15
  6
CONTINUOUS
 10
0.0
 20
0.0
 30
0.0
 66
1
 70
     1
  0
VERTEX
  8
画層15
 10
387.974005808141
  20
105.352217998419
  0
VERTEX
  8
画層15
 10
389.422894547574
  20
105.740446566073
  0
VERTEX
  8
画層15
 10
389.422894547574
  20
104.963989430765
  0
SEQEND
100
AcDbEntity
  8
画層15
  0
POLYLINE
  8
画層15
  6
CONTINUOUS
 10
0.0
 20
0.0
 30
0.0
 66
1
 70
     1
  0
VERTEX
  8
画層15
 10
395.474005808141
  20
105.352217998419
  0
VERTEX
  8
画層15
 10
394.025117068707
  20
104.963989430765
  0
VERTEX
  8
画層15
 10
394.025117068707
  20
105.740446566073
  0
SEQEND
100
AcDbEntity
  8
画層15
  0
TEXT
  8
画層15
 62
116
  6
CONTINUOUS
 62
116
 10
388.724005808141
 20
105.602217998419
 40
4
  1
7.5
  7
Font_0
 72
1
 11
391.724005808141
 21
109.602217998419
 73
3
  0
LINE
  8
画層15
  6
CONTINUOUS
 10
395.474005808141
 20
102.598721065904
 11
395.474005808141
 21
105.852217998419
  0
LINE
  8
画層15
  6
CONTINUOUS
 10
364.474005808141
 20
102.848721065904
 11
364.474005808141
 21
115.852217998419
  0
LINE
  8
画層15
  6
CONTINUOUS
 10
364.474005808141
 20
115.352217998419
 11
395.474005808141
 21
115.352217998419
  0
POLYLINE
  8
画層15
  6
CONTINUOUS
 10
0.0
 20
0.0
 30
0.0
 66
1
 70
     1
  0
VERTEX
  8
画層15
 10
364.474005808141
  20
115.352217998419
  0
VERTEX
  8
画層15
 10
365.922894547574
  20
115.740446566073
  0
VERTEX
  8
画層15
 10
365.922894547574
  20
114.963989430765
  0
SEQEND
100
AcDbEntity
  8
画層15
  0
POLYLINE
  8
画層15
  6
CONTINUOUS
 10
0.0
 20
0.0
 30
0.0
 66
1
 70
     1
  0
VERTEX
  8
画層15
 10
395.474005808141
  20
115.352217998419
  0
VERTEX
  8
画層15
 10
394.025117068707
  20
114.963989430765
  0
VERTEX
  8
画層15
 10
394.025117068707
  20
115.740446566073
  0
SEQEND
100
AcDbEntity
  8
画層15
  0
TEXT
  8
画層15
 62
116
  6
CONTINUOUS
 62
116
 10
377.974005808141
 20
115.602217998419
 40
4
  1
31
  7
Font_0
 72
1
 11
379.974005808141
 21
119.602217998419
 73
3
  0
LINE
  8
画層15
  6
CONTINUOUS
 10
395.474005808141
 20
102.598721065904
 11
395.474005808141
 21
115.852217998419
  0
LINE
  8
画層15
  6
CONTINUOUS
 10
393.224005808141
 20
66.348721065904
 11
402.382135947909
 21
66.348721065904
  0
LINE
  8
画層15
  6
CONTINUOUS
 10
401.882135947909
 20
66.348721065904
 11
401.882135947909
 21
98.348721065904
  0
POLYLINE
  8
画層15
  6
CONTINUOUS
 10
0.0
 20
0.0
 30
0.0
 66
1
 70
     1
  0
VERTEX
  8
画層15
 10
401.882135947909
  20
66.348721065904
  0
VERTEX
  8
画層15
 10
401.493907380255
  20
67.797609805337
  0
VERTEX
  8
画層15
 10
402.270364515563
  20
67.797609805337
  0
SEQEND
100
AcDbEntity
  8
画層15
  0
POLYLINE
  8
画層15
  6
CONTINUOUS
 10
0.0
 20
0.0
 30
0.0
 66
1
 70
     1
  0
VERTEX
  8
画層15
 10
401.882135947909
  20
98.348721065904
  0
VERTEX
  8
画層15
 10
402.270364515563
  20
96.89983232647
  0
VERTEX
  8
画層15
 10
401.493907380255
  20
96.89983232647
  0
SEQEND
100
AcDbEntity
  8
画層15
  0
TEXT
  8
画層15
 62
116
  6
CONTINUOUS
 62
116
 10
401.632135947909
 20
80.348721065904
 40
4
  1
32
  7
Font_0
 50
90
 72
1
 11
397.632135947909
 21
82.348721065904
 73
3
  0
LINE
  8
画層15
  6
CONTINUOUS
 10
393.224005808141
 20
98.348721065904
 11
402.382135947909
 21
98.348721065904
  0
LINE
  8
画層15
  6
CONTINUOUS
 10
364.004344536866
 20
70.352217998419
 11
358.754344536866
 21
70.352217998419
  0
LINE
  8
画層15
  6
CONTINUOUS
 10
359.254344536866
 20
70.352217998419
 11
359.254344536866
 21
94.348721065904
  0
POLYLINE
  8
画層15
  6
CONTINUOUS
 10
0.0
 20
0.0
 30
0.0
 66
1
 70
     1
  0
VERTEX
  8
画層15
 10
359.254344536866
  20
70.352217998419
  0
VERTEX
  8
画層15
 10
358.866115969212
  20
71.801106737853
  0
VERTEX
  8
画層15
 10
359.64257310452
  20
71.801106737853
  0
SEQEND
100
AcDbEntity
  8
画層15
  0
POLYLINE
  8
画層15
  6
CONTINUOUS
 10
0.0
 20
0.0
 30
0.0
 66
1
 70
     1
  0
VERTEX
  8
画層15
 10
359.254344536866
  20
94.348721065904
  0
VERTEX
  8
画層15
 10
359.64257310452
  20
92.89983232647
  0
VERTEX
  8
画層15
 10
358.866115969212
  20
92.89983232647
  0
SEQEND
100
AcDbEntity
  8
画層15
  0
TEXT
  8
画層15
 62
116
  6
CONTINUOUS
 62
116
 10
359.004344536866
 20
80.350469532161
 40
4
  1
24
  7
Font_0
 50
90
 72
1
 11
355.004344536866
 21
82.350469532161
 73
3
  0
LINE
  8
画層15
  6
CONTINUOUS
 10
364.224005808141
 20
94.348721065904
 11
358.754344536866
 21
94.348721065904
  0
LINE
  8
画層15
  6
CONTINUOUS
 10
365.224005808141
 20
68.348721065904
 11
351.982135947909
 21
68.348721065904
  0
LINE
  8
画層15
  6
CONTINUOUS
 10
352.482135947909
 20
68.348721065904
 11
352.482135947909
 21
96.348721065904
  0
POLYLINE
  8
画層15
  6
CONTINUOUS
 10
0.0
 20
0.0
 30
0.0
 66
1
 70
     1
  0
VERTEX
  8
画層15
 10
352.482135947909
  20
68.348721065904
  0
VERTEX
  8
画層15
 10
352.093907380255
  20
69.797609805337
  0
VERTEX
  8
画層15
 10
352.870364515563
  20
69.797609805337
  0
SEQEND
100
AcDbEntity
  8
画層15
  0
POLYLINE
  8
画層15
  6
CONTINUOUS
 10
0.0
 20
0.0
 30
0.0
 66
1
 70
     1
  0
VERTEX
  8
画層15
 10
352.482135947909
  20
96.348721065904
  0
VERTEX
  8
画層15
 10
352.870364515563
  20
94.89983232647
  0
VERTEX
  8
画層15
 10
352.093907380255
  20
94.89983232647
  0
SEQEND
100
AcDbEntity
  8
画層15
  0
TEXT
  8
画層15
 62
116
  6
CONTINUOUS
 62
116
 10
352.232135947909
 20
80.348721065904
 40
4
  1
28
  7
Font_0
 50
90
 72
1
 11
348.232135947909
 21
82.348721065904
 73
3
  0
LINE
  8
画層15
  6
CONTINUOUS
 10
365.224005808141
 20
96.348721065904
 11
351.982135947909
 21
96.348721065904
  0
LINE
  8
画層15
  6
CONTINUOUS
 10
364.224005808141
 20
62.348721065904
 11
346.262135947909
 21
62.348721065904
  0
LINE
  8
画層15
  6
CONTINUOUS
 10
346.762135947909
 20
62.348721065904
 11
346.762135947909
 21
102.348721065904
  0
POLYLINE
  8
画層15
  6
CONTINUOUS
 10
0.0
 20
0.0
 30
0.0
 66
1
 70
     1
  0
VERTEX
  8
画層15
 10
346.762135947909
  20
62.348721065904
  0
VERTEX
  8
画層15
 10
346.373907380255
  20
63.797609805337
  0
VERTEX
  8
画層15
 10
347.150364515563
  20
63.797609805337
  0
SEQEND
100
AcDbEntity
  8
画層15
  0
POLYLINE
  8
画層15
  6
CONTINUOUS
 10
0.0
 20
0.0
 30
0.0
 66
1
 70
     1
  0
VERTEX
  8
画層15
 10
346.762135947909
  20
102.348721065904
  0
VERTEX
  8
画層15
 10
347.150364515563
  20
100.89983232647
  0
VERTEX
  8
画層15
 10
346.373907380255
  20
100.89983232647
  0
SEQEND
100
AcDbEntity
  8
画層15
  0
TEXT
  8
画層15
 62
116
  6
CONTINUOUS
 62
116
 10
346.512135947909
 20
80.348721065904
 40
4
  1
40
  7
Font_0
 50
90
 72
1
 11
342.512135947909
 21
82.348721065904
 73
3
  0
LINE
  8
画層15
  6
CONTINUOUS
 10
364.224005808141
 20
102.348721065904
 11
346.262135947909
 21
102.348721065904
  0
LINE
  8
画層15
  6
CONTINUOUS
 10
386.703345532058
 20
64.804239773435
 11
389.244666084224
 21
67.893202358372
  0
POLYLINE
  8
画層15
  6
CONTINUOUS
 10
0.0
 20
0.0
 30
0.0
 66
1
 70
     1
  0
VERTEX
  8
画層15
 10
386.703345532058
  20
64.804239773435
  0
VERTEX
  8
画層15
 10
386.082628729198
  20
63.438695687495
  0
VERTEX
  8
画層15
 10
385.483016969255
  20
63.932002306453
  0
SEQEND
100
AcDbEntity
  8
画層15
  0
POLYLINE
  8
画層15
  6
CONTINUOUS
 10
0.0
 20
0.0
 30
0.0
 66
1
 70
     1
  0
VERTEX
  8
画層15
 10
389.244666084224
  20
67.893202358372
  0
VERTEX
  8
画層15
 10
389.865382887083
  20
69.258746444313
  0
VERTEX
  8
画層15
 10
390.464994647026
  20
68.765439825354
  0
SEQEND
100
AcDbEntity
  8
画層15
  0
TEXT
  8
画層15
 62
116
  6
CONTINUOUS
 62
116
 10
393.498916888956
 20
73.457719416521
 40
4
  1
%%c4
  7
Font_0
 50
50.5555255092067
 72
2
 11
394.221935132268
 21
80.632483846092
 73
3
  0
LINE
  8
画層15
  6
CONTINUOUS
 10
389.244666084224
 20
67.893202358372
 11
397.503957878764
 21
77.932330759416
  0
LINE
  8
画層15
  6
CONTINUOUS
 10
386.703345532058
 20
64.804239773435
 11
384.797355117933
 21
62.487517834733
  0
LINE
  8
画層15
  6
CONTINUOUS
 10
379.714899965178
 20
94.999688284111
 11
381.233111651103
 21
93.697753847697
  0
POLYLINE
  8
画層15
  6
CONTINUOUS
 10
0.0
 20
0.0
 30
0.0
 66
1
 70
     1
  0
VERTEX
  8
画層15
 10
379.714899965178
  20
94.999688284111
  0
VERTEX
  8
画層15
 10
378.362315986557
  20
95.6481607822
  0
VERTEX
  8
画層15
 10
378.867764127986
  20
96.237573930422
  0
SEQEND
100
AcDbEntity
  8
画層15
  0
POLYLINE
  8
画層15
  6
CONTINUOUS
 10
0.0
 20
0.0
 30
0.0
 66
1
 70
     1
  0
VERTEX
  8
画層15
 10
381.233111651103
  20
93.697753847697
  0
VERTEX
  8
画層15
 10
382.585695629724
  20
93.049281349607
  0
VERTEX
  8
画層15
 10
382.080247488296
  20
92.459868201385
  0
SEQEND
100
AcDbEntity
  8
画層15
  0
TEXT
  8
画層15
 62
116
  6
CONTINUOUS
 62
116
 10
386.709594356393
 20
89.3307597809891
 40
4
  1
%%c2
  7
Font_0
 50
319.385434265389
 72
2
 11
393.868098286996
 21
88.461379843598
 73
3
  0
LINE
  8
画層15
  6
CONTINUOUS
 10
381.233111651103
 20
93.697753847697
 11
391.101487609617
 21
85.235180011007
  0
LINE
  8
画層15
  6
CONTINUOUS
 10
379.714899965178
 20
94.999688284111
 11
377.43758243629
 21
96.952589938731
  0
LINE
  8
画層15
  6
CONTINUOUS
 10
370.790664910567
 20
69.191174039577
 11
370.157346705715
 21
67.50626809223
  0
POLYLINE
  8
画層15
  6
CONTINUOUS
 10
0.0
 20
0.0
 30
0.0
 66
1
 70
     1
  0
VERTEX
  8
画層15
 10
370.790664910567
  20
69.191174039577
  0
VERTEX
  8
画層15
 10
370.937042128855
  20
70.684014858273
  0
VERTEX
  8
画層15
 10
371.663851709488
  20
70.41082350323
  0
SEQEND
100
AcDbEntity
  8
画層15
  0
POLYLINE
  8
画層15
  6
CONTINUOUS
 10
0.0
 20
0.0
 30
0.0
 66
1
 70
     1
  0
VERTEX
  8
画層15
 10
370.157346705715
  20
67.50626809223
  0
VERTEX
  8
画層15
 10
370.010969487427
  20
66.013427273534
  0
VERTEX
  8
画層15
 10
369.284159906794
  20
66.286618628577
  0
SEQEND
100
AcDbEntity
  8
画層15
  0
TEXT
  8
画層15
 62
116
  6
CONTINUOUS
 62
116
 10
364.293836836566
 20
52.6172871998255
 40
4
  1
%%c1.8
  7
Font_0
 50
69.3998899001894
 72
2
 11
364.068035869418
 21
63.385249584754
 73
3
  0
LINE
  8
画層15
  6
CONTINUOUS
 10
370.157346705715
 20
67.50626809223
 11
363.824164657195
 21
50.657208618767
  0
LINE
  8
画層15
  6
CONTINUOUS
 10
370.790664910567
 20
69.191174039577
 11
371.846195251987
 21
71.999350618487
  0
TEXT
  8
画層15
 62
116
  6
CONTINUOUS
 62
116
 10
361.254344536866
 20
42.352217998419
 40
6
  1
A5052　ｔ0.5
  7
Font_0
 72
1
 11
379.254344536866
 21
45.352217998419
 73
2
  0
TEXT
  8
画層15
 62
116
  6
CONTINUOUS
 62
116
 10
44.6267985245963
 20
19.808721065904
 40
6
  1
No1、No2、No3用取付金具
  7
Font_0
 72
1
 11
79.1267985245963
 21
22.808721065904
 73
2
  0
TEXT
  8
画層15
 62
116
  6
CONTINUOUS
 62
116
 10
172.826798524596
 20
38.268721065904
 40
6
  1
展開図
  7
Font_0
 72
1
 11
181.826798524596
 21
41.268721065904
 73
2
  0
TEXT
  8
画層15
 62
116
  6
CONTINUOUS
 62
116
 10
252.106798524596
 20
21.108721065904
 40
6
  1
No4、No5、No6用取付金具
  7
Font_0
 72
1
 11
286.606798524596
 21
24.108721065904
 73
2
  0
TEXT
  8
画層15
 62
116
  6
CONTINUOUS
 62
116
 10
373.724467236253
 20
28.388721065904
 40
6
  1
展開図
  7
Font_0
 72
1
 11
382.724467236253
 21
31.388721065904
 73
2
  0
ENDSEC
  0
EOF
