999
Outputted By AR_CAD Ver.1.4.7
  0
SECTION
  2
HEADER
  9
$ACADVER
  1
AC1009
  9
$DWGCODEPAGE
  3
DOS932
  9
$EXTMIN
 10
0
 20
0
  9
$EXTMAX
 10
297
 20
210
  9
$INSBASE
 10
0.0
 20
0.0
 30
0.0
  9
$HANDLING
 70
     1
  9
$LTSCALE
 40
1
  0
ENDSEC
  0
SECTION
  2
TABLES
  0
TABLE
  2
LTYPE
 70
     7
  0
LTYPE
  2
BYBLOCK
 70
    64
 3

 72
    65
 73
    0
 40
    0
  0
LTYPE
  2
BYLAYER
 70
    64
 3

 72
    65
 73
    0
 40
    0
  0
LTYPE
  2
CONTINUOUS
 70
    64
 3
CONTINUOUS
 72
    65
 73
    0
 40
    0
  0
LTYPE
  2
DASHED
 70
    64
 3

 72
    65
 73
    2
 40
    3.5
 49
    2.917
 49
    -0.583
  0
LTYPE
  2
DOT
 70
    64
 3

 72
    65
 73
    2
 40
    2
 49
    1
 49
    -1
  0
LTYPE
  2
DASHDOT
 70
    64
 3

 72
    65
 73
    4
 40
    3.5
 49
    1.84147386461011
 49
    -0.552842045129963
 49
    0.552842045129963
 49
    -0.552842045129963
  0
LTYPE
  2
DIVIDE
 70
    64
 3

 72
    65
 73
    6
 40
    3.5
 49
    1.4
 49
    -0.42
 49
    0.42
 49
    -0.42
 49
    0.42
 49
    -0.42
  0
LTYPE
  2
HIDDEN
 70
    64
 3

 72
    65
 73
    2
 40
    4
 49
    2
 49
    -2
  0
ENDTAB
  0
TABLE
  2
LAYER
 70
   257
  0
LAYER
  2
画層0
 70
    0
 62
1
  6
CONTINUOUS
  0
LAYER
  2
画層1
 70
    0
 62
3
  6
CONTINUOUS
  0
LAYER
  2
画層2
 70
    0
 62
9
  6
CONTINUOUS
  0
LAYER
  2
画層3
 70
    0
 62
7
  6
CONTINUOUS
  0
LAYER
  2
画層4
 70
    0
 62
6
  6
CONTINUOUS
  0
LAYER
  2
画層5
 70
    0
 62
1
  6
CONTINUOUS
  0
LAYER
  2
画層6
 70
    0
 62
7
  6
CONTINUOUS
  0
LAYER
  2
画層7
 70
    0
 62
51
  6
CONTINUOUS
  0
LAYER
  2
画層8
 70
    0
 62
61
  6
CONTINUOUS
  0
LAYER
  2
画層9
 70
    0
 62
111
  6
CONTINUOUS
  0
LAYER
  2
画層10
 70
    0
 62
91
  6
CONTINUOUS
  0
LAYER
  2
画層11
 70
    0
 62
131
  6
CONTINUOUS
  0
LAYER
  2
画層12
 70
    0
 62
161
  6
CONTINUOUS
  0
LAYER
  2
画層13
 70
    0
 62
5
  6
CONTINUOUS
  0
LAYER
  2
画層14
 70
    0
 62
7
  6
CONTINUOUS
  0
LAYER
  2
画層15
 70
    0
 62
116
  6
CONTINUOUS
  0
LAYER
  2
画層16
 70
    0
 62
7
  6
CONTINUOUS
  0
LAYER
  2
画層17
 70
    0
 62
70
  6
CONTINUOUS
  0
LAYER
  2
画層18
 70
    0
 62
211
  6
CONTINUOUS
  0
LAYER
  2
画層19
 70
    0
 62
137
  6
CONTINUOUS
  0
LAYER
  2
画層20
 70
    0
 62
4
  6
CONTINUOUS
  0
LAYER
  2
画層21
 70
    0
 62
131
  6
CONTINUOUS
  0
LAYER
  2
画層22
 70
    0
 62
4
  6
CONTINUOUS
  0
LAYER
  2
画層23
 70
    0
 62
4
  6
CONTINUOUS
  0
LAYER
  2
画層24
 70
    0
 62
7
  6
CONTINUOUS
  0
LAYER
  2
画層25
 70
    0
 62
7
  6
CONTINUOUS
  0
LAYER
  2
画層26
 70
    0
 62
7
  6
CONTINUOUS
  0
LAYER
  2
画層27
 70
    0
 62
7
  6
CONTINUOUS
  0
LAYER
  2
画層28
 70
    0
 62
7
  6
CONTINUOUS
  0
LAYER
  2
画層29
 70
    0
 62
7
  6
CONTINUOUS
  0
LAYER
  2
画層30
 70
    0
 62
7
  6
CONTINUOUS
  0
LAYER
  2
画層31
 70
    0
 62
7
  6
CONTINUOUS
  0
LAYER
  2
画層32
 70
    0
 62
7
  6
CONTINUOUS
  0
LAYER
  2
画層33
 70
    0
 62
7
  6
CONTINUOUS
  0
LAYER
  2
画層34
 70
    0
 62
7
  6
CONTINUOUS
  0
LAYER
  2
画層35
 70
    0
 62
7
  6
CONTINUOUS
  0
LAYER
  2
画層36
 70
    0
 62
7
  6
CONTINUOUS
  0
LAYER
  2
画層37
 70
    0
 62
7
  6
CONTINUOUS
  0
LAYER
  2
画層38
 70
    0
 62
7
  6
CONTINUOUS
  0
LAYER
  2
画層39
 70
    0
 62
7
  6
CONTINUOUS
  0
LAYER
  2
画層40
 70
    0
 62
7
  6
CONTINUOUS
  0
LAYER
  2
画層41
 70
    0
 62
7
  6
CONTINUOUS
  0
LAYER
  2
画層42
 70
    0
 62
7
  6
CONTINUOUS
  0
LAYER
  2
画層43
 70
    0
 62
7
  6
CONTINUOUS
  0
LAYER
  2
画層44
 70
    0
 62
7
  6
CONTINUOUS
  0
LAYER
  2
画層45
 70
    0
 62
7
  6
CONTINUOUS
  0
LAYER
  2
画層46
 70
    0
 62
7
  6
CONTINUOUS
  0
LAYER
  2
画層47
 70
    0
 62
7
  6
CONTINUOUS
  0
LAYER
  2
画層48
 70
    0
 62
7
  6
CONTINUOUS
  0
LAYER
  2
画層49
 70
    0
 62
7
  6
CONTINUOUS
  0
LAYER
  2
画層50
 70
    0
 62
7
  6
CONTINUOUS
  0
LAYER
  2
画層51
 70
    0
 62
7
  6
CONTINUOUS
  0
LAYER
  2
画層52
 70
    0
 62
7
  6
CONTINUOUS
  0
LAYER
  2
画層53
 70
    0
 62
7
  6
CONTINUOUS
  0
LAYER
  2
画層54
 70
    0
 62
7
  6
CONTINUOUS
  0
LAYER
  2
画層55
 70
    0
 62
7
  6
CONTINUOUS
  0
LAYER
  2
画層56
 70
    0
 62
7
  6
CONTINUOUS
  0
LAYER
  2
画層57
 70
    0
 62
7
  6
CONTINUOUS
  0
LAYER
  2
画層58
 70
    0
 62
7
  6
CONTINUOUS
  0
LAYER
  2
画層59
 70
    0
 62
7
  6
CONTINUOUS
  0
LAYER
  2
画層60
 70
    0
 62
7
  6
CONTINUOUS
  0
LAYER
  2
画層61
 70
    0
 62
7
  6
CONTINUOUS
  0
LAYER
  2
画層62
 70
    0
 62
7
  6
CONTINUOUS
  0
LAYER
  2
画層63
 70
    0
 62
7
  6
CONTINUOUS
  0
LAYER
  2
画層64
 70
    0
 62
7
  6
CONTINUOUS
  0
LAYER
  2
画層65
 70
    0
 62
7
  6
CONTINUOUS
  0
LAYER
  2
画層66
 70
    0
 62
7
  6
CONTINUOUS
  0
LAYER
  2
画層67
 70
    0
 62
7
  6
CONTINUOUS
  0
LAYER
  2
画層68
 70
    0
 62
7
  6
CONTINUOUS
  0
LAYER
  2
画層69
 70
    0
 62
7
  6
CONTINUOUS
  0
LAYER
  2
画層70
 70
    0
 62
7
  6
CONTINUOUS
  0
LAYER
  2
画層71
 70
    0
 62
7
  6
CONTINUOUS
  0
LAYER
  2
画層72
 70
    0
 62
7
  6
CONTINUOUS
  0
LAYER
  2
画層73
 70
    0
 62
7
  6
CONTINUOUS
  0
LAYER
  2
画層74
 70
    0
 62
7
  6
CONTINUOUS
  0
LAYER
  2
画層75
 70
    0
 62
7
  6
CONTINUOUS
  0
LAYER
  2
画層76
 70
    0
 62
7
  6
CONTINUOUS
  0
LAYER
  2
画層77
 70
    0
 62
7
  6
CONTINUOUS
  0
LAYER
  2
画層78
 70
    0
 62
7
  6
CONTINUOUS
  0
LAYER
  2
画層79
 70
    0
 62
7
  6
CONTINUOUS
  0
LAYER
  2
画層80
 70
    0
 62
7
  6
CONTINUOUS
  0
LAYER
  2
画層81
 70
    0
 62
7
  6
CONTINUOUS
  0
LAYER
  2
画層82
 70
    0
 62
7
  6
CONTINUOUS
  0
LAYER
  2
画層83
 70
    0
 62
7
  6
CONTINUOUS
  0
LAYER
  2
画層84
 70
    0
 62
7
  6
CONTINUOUS
  0
LAYER
  2
画層85
 70
    0
 62
7
  6
CONTINUOUS
  0
LAYER
  2
画層86
 70
    0
 62
7
  6
CONTINUOUS
  0
LAYER
  2
画層87
 70
    0
 62
7
  6
CONTINUOUS
  0
LAYER
  2
画層88
 70
    0
 62
7
  6
CONTINUOUS
  0
LAYER
  2
画層89
 70
    0
 62
7
  6
CONTINUOUS
  0
LAYER
  2
画層90
 70
    0
 62
7
  6
CONTINUOUS
  0
LAYER
  2
画層91
 70
    0
 62
7
  6
CONTINUOUS
  0
LAYER
  2
画層92
 70
    0
 62
7
  6
CONTINUOUS
  0
LAYER
  2
画層93
 70
    0
 62
7
  6
CONTINUOUS
  0
LAYER
  2
画層94
 70
    0
 62
7
  6
CONTINUOUS
  0
LAYER
  2
画層95
 70
    0
 62
7
  6
CONTINUOUS
  0
LAYER
  2
画層96
 70
    0
 62
7
  6
CONTINUOUS
  0
LAYER
  2
画層97
 70
    0
 62
7
  6
CONTINUOUS
  0
LAYER
  2
画層98
 70
    0
 62
7
  6
CONTINUOUS
  0
LAYER
  2
画層99
 70
    0
 62
7
  6
CONTINUOUS
  0
LAYER
  2
画層100
 70
    0
 62
7
  6
CONTINUOUS
  0
LAYER
  2
画層101
 70
    0
 62
7
  6
CONTINUOUS
  0
LAYER
  2
画層102
 70
    0
 62
7
  6
CONTINUOUS
  0
LAYER
  2
画層103
 70
    0
 62
7
  6
CONTINUOUS
  0
LAYER
  2
画層104
 70
    0
 62
7
  6
CONTINUOUS
  0
LAYER
  2
画層105
 70
    0
 62
7
  6
CONTINUOUS
  0
LAYER
  2
画層106
 70
    0
 62
7
  6
CONTINUOUS
  0
LAYER
  2
画層107
 70
    0
 62
7
  6
CONTINUOUS
  0
LAYER
  2
画層108
 70
    0
 62
7
  6
CONTINUOUS
  0
LAYER
  2
画層109
 70
    0
 62
7
  6
CONTINUOUS
  0
LAYER
  2
画層110
 70
    0
 62
7
  6
CONTINUOUS
  0
LAYER
  2
画層111
 70
    0
 62
7
  6
CONTINUOUS
  0
LAYER
  2
画層112
 70
    0
 62
7
  6
CONTINUOUS
  0
LAYER
  2
画層113
 70
    0
 62
7
  6
CONTINUOUS
  0
LAYER
  2
画層114
 70
    0
 62
7
  6
CONTINUOUS
  0
LAYER
  2
画層115
 70
    0
 62
7
  6
CONTINUOUS
  0
LAYER
  2
画層116
 70
    0
 62
7
  6
CONTINUOUS
  0
LAYER
  2
画層117
 70
    0
 62
7
  6
CONTINUOUS
  0
LAYER
  2
画層118
 70
    0
 62
7
  6
CONTINUOUS
  0
LAYER
  2
画層119
 70
    0
 62
7
  6
CONTINUOUS
  0
LAYER
  2
画層120
 70
    0
 62
7
  6
CONTINUOUS
  0
LAYER
  2
画層121
 70
    0
 62
7
  6
CONTINUOUS
  0
LAYER
  2
画層122
 70
    0
 62
7
  6
CONTINUOUS
  0
LAYER
  2
画層123
 70
    0
 62
7
  6
CONTINUOUS
  0
LAYER
  2
画層124
 70
    0
 62
7
  6
CONTINUOUS
  0
LAYER
  2
画層125
 70
    0
 62
7
  6
CONTINUOUS
  0
LAYER
  2
画層126
 70
    0
 62
7
  6
CONTINUOUS
  0
LAYER
  2
画層127
 70
    0
 62
7
  6
CONTINUOUS
  0
LAYER
  2
画層128
 70
    0
 62
7
  6
CONTINUOUS
  0
LAYER
  2
画層129
 70
    0
 62
7
  6
CONTINUOUS
  0
LAYER
  2
画層130
 70
    0
 62
7
  6
CONTINUOUS
  0
LAYER
  2
画層131
 70
    0
 62
7
  6
CONTINUOUS
  0
LAYER
  2
画層132
 70
    0
 62
7
  6
CONTINUOUS
  0
LAYER
  2
画層133
 70
    0
 62
7
  6
CONTINUOUS
  0
LAYER
  2
画層134
 70
    0
 62
7
  6
CONTINUOUS
  0
LAYER
  2
画層135
 70
    0
 62
7
  6
CONTINUOUS
  0
LAYER
  2
画層136
 70
    0
 62
7
  6
CONTINUOUS
  0
LAYER
  2
画層137
 70
    0
 62
7
  6
CONTINUOUS
  0
LAYER
  2
画層138
 70
    0
 62
7
  6
CONTINUOUS
  0
LAYER
  2
画層139
 70
    0
 62
7
  6
CONTINUOUS
  0
LAYER
  2
画層140
 70
    0
 62
7
  6
CONTINUOUS
  0
LAYER
  2
画層141
 70
    0
 62
7
  6
CONTINUOUS
  0
LAYER
  2
画層142
 70
    0
 62
7
  6
CONTINUOUS
  0
LAYER
  2
画層143
 70
    0
 62
7
  6
CONTINUOUS
  0
LAYER
  2
画層144
 70
    0
 62
7
  6
CONTINUOUS
  0
LAYER
  2
画層145
 70
    0
 62
7
  6
CONTINUOUS
  0
LAYER
  2
画層146
 70
    0
 62
7
  6
CONTINUOUS
  0
LAYER
  2
画層147
 70
    0
 62
7
  6
CONTINUOUS
  0
LAYER
  2
画層148
 70
    0
 62
7
  6
CONTINUOUS
  0
LAYER
  2
画層149
 70
    0
 62
7
  6
CONTINUOUS
  0
LAYER
  2
画層150
 70
    0
 62
7
  6
CONTINUOUS
  0
LAYER
  2
画層151
 70
    0
 62
7
  6
CONTINUOUS
  0
LAYER
  2
画層152
 70
    0
 62
7
  6
CONTINUOUS
  0
LAYER
  2
画層153
 70
    0
 62
7
  6
CONTINUOUS
  0
LAYER
  2
画層154
 70
    0
 62
7
  6
CONTINUOUS
  0
LAYER
  2
画層155
 70
    0
 62
7
  6
CONTINUOUS
  0
LAYER
  2
画層156
 70
    0
 62
7
  6
CONTINUOUS
  0
LAYER
  2
画層157
 70
    0
 62
7
  6
CONTINUOUS
  0
LAYER
  2
画層158
 70
    0
 62
7
  6
CONTINUOUS
  0
LAYER
  2
画層159
 70
    0
 62
7
  6
CONTINUOUS
  0
LAYER
  2
画層160
 70
    0
 62
7
  6
CONTINUOUS
  0
LAYER
  2
画層161
 70
    0
 62
7
  6
CONTINUOUS
  0
LAYER
  2
画層162
 70
    0
 62
7
  6
CONTINUOUS
  0
LAYER
  2
画層163
 70
    0
 62
7
  6
CONTINUOUS
  0
LAYER
  2
画層164
 70
    0
 62
7
  6
CONTINUOUS
  0
LAYER
  2
画層165
 70
    0
 62
7
  6
CONTINUOUS
  0
LAYER
  2
画層166
 70
    0
 62
7
  6
CONTINUOUS
  0
LAYER
  2
画層167
 70
    0
 62
7
  6
CONTINUOUS
  0
LAYER
  2
画層168
 70
    0
 62
7
  6
CONTINUOUS
  0
LAYER
  2
画層169
 70
    0
 62
7
  6
CONTINUOUS
  0
LAYER
  2
画層170
 70
    0
 62
7
  6
CONTINUOUS
  0
LAYER
  2
画層171
 70
    0
 62
7
  6
CONTINUOUS
  0
LAYER
  2
画層172
 70
    0
 62
7
  6
CONTINUOUS
  0
LAYER
  2
画層173
 70
    0
 62
7
  6
CONTINUOUS
  0
LAYER
  2
画層174
 70
    0
 62
7
  6
CONTINUOUS
  0
LAYER
  2
画層175
 70
    0
 62
7
  6
CONTINUOUS
  0
LAYER
  2
画層176
 70
    0
 62
7
  6
CONTINUOUS
  0
LAYER
  2
画層177
 70
    0
 62
7
  6
CONTINUOUS
  0
LAYER
  2
画層178
 70
    0
 62
7
  6
CONTINUOUS
  0
LAYER
  2
画層179
 70
    0
 62
7
  6
CONTINUOUS
  0
LAYER
  2
画層180
 70
    0
 62
7
  6
CONTINUOUS
  0
LAYER
  2
画層181
 70
    0
 62
7
  6
CONTINUOUS
  0
LAYER
  2
画層182
 70
    0
 62
7
  6
CONTINUOUS
  0
LAYER
  2
画層183
 70
    0
 62
7
  6
CONTINUOUS
  0
LAYER
  2
画層184
 70
    0
 62
7
  6
CONTINUOUS
  0
LAYER
  2
画層185
 70
    0
 62
7
  6
CONTINUOUS
  0
LAYER
  2
画層186
 70
    0
 62
7
  6
CONTINUOUS
  0
LAYER
  2
画層187
 70
    0
 62
7
  6
CONTINUOUS
  0
LAYER
  2
画層188
 70
    0
 62
7
  6
CONTINUOUS
  0
LAYER
  2
画層189
 70
    0
 62
7
  6
CONTINUOUS
  0
LAYER
  2
画層190
 70
    0
 62
7
  6
CONTINUOUS
  0
LAYER
  2
画層191
 70
    0
 62
7
  6
CONTINUOUS
  0
LAYER
  2
画層192
 70
    0
 62
7
  6
CONTINUOUS
  0
LAYER
  2
画層193
 70
    0
 62
7
  6
CONTINUOUS
  0
LAYER
  2
画層194
 70
    0
 62
7
  6
CONTINUOUS
  0
LAYER
  2
画層195
 70
    0
 62
7
  6
CONTINUOUS
  0
LAYER
  2
画層196
 70
    0
 62
7
  6
CONTINUOUS
  0
LAYER
  2
画層197
 70
    0
 62
7
  6
CONTINUOUS
  0
LAYER
  2
画層198
 70
    0
 62
7
  6
CONTINUOUS
  0
LAYER
  2
画層199
 70
    0
 62
7
  6
CONTINUOUS
  0
LAYER
  2
画層200
 70
    0
 62
7
  6
CONTINUOUS
  0
LAYER
  2
画層201
 70
    0
 62
7
  6
CONTINUOUS
  0
LAYER
  2
画層202
 70
    0
 62
7
  6
CONTINUOUS
  0
LAYER
  2
画層203
 70
    0
 62
7
  6
CONTINUOUS
  0
LAYER
  2
画層204
 70
    0
 62
7
  6
CONTINUOUS
  0
LAYER
  2
画層205
 70
    0
 62
7
  6
CONTINUOUS
  0
LAYER
  2
画層206
 70
    0
 62
7
  6
CONTINUOUS
  0
LAYER
  2
画層207
 70
    0
 62
7
  6
CONTINUOUS
  0
LAYER
  2
画層208
 70
    0
 62
7
  6
CONTINUOUS
  0
LAYER
  2
画層209
 70
    0
 62
7
  6
CONTINUOUS
  0
LAYER
  2
画層210
 70
    0
 62
7
  6
CONTINUOUS
  0
LAYER
  2
画層211
 70
    0
 62
7
  6
CONTINUOUS
  0
LAYER
  2
画層212
 70
    0
 62
7
  6
CONTINUOUS
  0
LAYER
  2
画層213
 70
    0
 62
7
  6
CONTINUOUS
  0
LAYER
  2
画層214
 70
    0
 62
7
  6
CONTINUOUS
  0
LAYER
  2
画層215
 70
    0
 62
7
  6
CONTINUOUS
  0
LAYER
  2
画層216
 70
    0
 62
7
  6
CONTINUOUS
  0
LAYER
  2
画層217
 70
    0
 62
7
  6
CONTINUOUS
  0
LAYER
  2
画層218
 70
    0
 62
7
  6
CONTINUOUS
  0
LAYER
  2
画層219
 70
    0
 62
7
  6
CONTINUOUS
  0
LAYER
  2
画層220
 70
    0
 62
7
  6
CONTINUOUS
  0
LAYER
  2
画層221
 70
    0
 62
7
  6
CONTINUOUS
  0
LAYER
  2
画層222
 70
    0
 62
7
  6
CONTINUOUS
  0
LAYER
  2
画層223
 70
    0
 62
7
  6
CONTINUOUS
  0
LAYER
  2
画層224
 70
    0
 62
7
  6
CONTINUOUS
  0
LAYER
  2
画層225
 70
    0
 62
7
  6
CONTINUOUS
  0
LAYER
  2
画層226
 70
    0
 62
7
  6
CONTINUOUS
  0
LAYER
  2
画層227
 70
    0
 62
7
  6
CONTINUOUS
  0
LAYER
  2
画層228
 70
    0
 62
7
  6
CONTINUOUS
  0
LAYER
  2
画層229
 70
    0
 62
7
  6
CONTINUOUS
  0
LAYER
  2
画層230
 70
    0
 62
7
  6
CONTINUOUS
  0
LAYER
  2
画層231
 70
    0
 62
7
  6
CONTINUOUS
  0
LAYER
  2
画層232
 70
    0
 62
7
  6
CONTINUOUS
  0
LAYER
  2
画層233
 70
    0
 62
7
  6
CONTINUOUS
  0
LAYER
  2
画層234
 70
    0
 62
7
  6
CONTINUOUS
  0
LAYER
  2
画層235
 70
    0
 62
7
  6
CONTINUOUS
  0
LAYER
  2
画層236
 70
    0
 62
7
  6
CONTINUOUS
  0
LAYER
  2
画層237
 70
    0
 62
7
  6
CONTINUOUS
  0
LAYER
  2
画層238
 70
    0
 62
7
  6
CONTINUOUS
  0
LAYER
  2
画層239
 70
    0
 62
7
  6
CONTINUOUS
  0
LAYER
  2
画層240
 70
    0
 62
7
  6
CONTINUOUS
  0
LAYER
  2
画層241
 70
    0
 62
7
  6
CONTINUOUS
  0
LAYER
  2
画層242
 70
    0
 62
7
  6
CONTINUOUS
  0
LAYER
  2
画層243
 70
    0
 62
7
  6
CONTINUOUS
  0
LAYER
  2
画層244
 70
    0
 62
7
  6
CONTINUOUS
  0
LAYER
  2
画層245
 70
    0
 62
7
  6
CONTINUOUS
  0
LAYER
  2
画層246
 70
    0
 62
7
  6
CONTINUOUS
  0
LAYER
  2
画層247
 70
    0
 62
7
  6
CONTINUOUS
  0
LAYER
  2
画層248
 70
    0
 62
7
  6
CONTINUOUS
  0
LAYER
  2
画層249
 70
    0
 62
7
  6
CONTINUOUS
  0
LAYER
  2
画層250
 70
    0
 62
7
  6
CONTINUOUS
  0
LAYER
  2
画層251
 70
    0
 62
7
  6
CONTINUOUS
  0
LAYER
  2
画層252
 70
    0
 62
7
  6
CONTINUOUS
  0
LAYER
  2
画層253
 70
    0
 62
7
  6
CONTINUOUS
  0
LAYER
  2
画層254
 70
    0
 62
7
  6
CONTINUOUS
  0
LAYER
  2
画層255
 70
    0
 62
7
  6
CONTINUOUS
  0
LAYER
  2
0
 70
   64
 62
    7
  6
CONTINUOUS
  0
ENDTAB
  0
TABLE
  2
STYLE
 70
     1
  0
STYLE
  2
Standard
 70
     0
 40
0.0
 41
1.0
 50
0.0
 71
     0
 42
3.2
  3
TXT
  4
BIGFONT
  0
STYLE
  2
Font_0
 70
     0
 40
0.0
 41
1.0
 50
0.0
 71
     0
 42
3.2
  3
txt
  4
BIGFONT
  0
ENDTAB
  0
ENDSEC
  0
SECTION
  2
BLOCKS
  0
BLOCK
  8
画層0
  2
仕上0-U
 70
    0
 10
0
 20
0
 30
0.0
  3
仕上0-U
  1

  0
LINE
  8
画層0
  6
CONTINUOUS
 10
-1.99999999999994
 20
3.99999999999994
 11
5.6843418860808E-14
 21
-5.6843418860808E-14
  0
LINE
  8
画層0
  6
CONTINUOUS
 10
5.6843418860808E-14
 20
-5.6843418860808E-14
 11
4.00000000000006
 21
7.99999999999994
  0
CIRCLE
  8
画層0
  6
CONTINUOUS
 10
5.6843418860808E-14
 20
3.99999999999994
 40
1.71503159622366
  0
ENDBLK
  0
BLOCK
  8
画層0
  2
仕上0-D
 70
    0
 10
0
 20
0
 30
0.0
  3
仕上0-D
  1

  0
LINE
  8
画層0
  6
CONTINUOUS
 10
-1.99999999999994
 20
-3.99999999999994
 11
5.6843418860808E-14
 21
5.6843418860808E-14
  0
LINE
  8
画層0
  6
CONTINUOUS
 10
5.6843418860808E-14
 20
5.6843418860808E-14
 11
4.00000000000006
 21
-7.99999999999994
  0
CIRCLE
  8
画層0
  6
CONTINUOUS
 10
5.6843418860808E-14
 20
-3.99999999999994
 40
1.71503159622366
  0
ENDBLK
  0
BLOCK
  8
画層0
  2
仕上1-U
 70
    0
 10
0
 20
0
 30
0.0
  3
仕上1-U
  1

  0
LINE
  8
画層0
  6
CONTINUOUS
 10
-1.99999999999994
 20
3.99999999999994
 11
5.6843418860808E-14
 21
-5.6843418860808E-14
  0
LINE
  8
画層0
  6
CONTINUOUS
 10
5.6843418860808E-14
 20
-5.6843418860808E-14
 11
4.00000000000006
 21
7.99999999999994
  0
LINE
  8
画層0
  6
CONTINUOUS
 10
-1.99999999999994
 20
3.99999999999994
 11
2.00000000000006
 21
3.99999999999994
  0
TEXT
  8
画層0
 62
1
  6
CONTINUOUS
 62
1
 10
-2.37158060478816
 20
4.65568391941542
 40
3
  1
6.3
  7
Font_0
 72
1
 11
-0.121580604788164
 21
7.65568391941542
 73
3
  0
ENDBLK
  0
BLOCK
  8
画層0
  2
仕上1-D
 70
    0
 10
0
 20
0
 30
0.0
  3
仕上1-D
  1

  0
LINE
  8
画層0
  6
CONTINUOUS
 10
-1.99999999999994
 20
-3.99999999999994
 11
5.6843418860808E-14
 21
5.6843418860808E-14
  0
LINE
  8
画層0
  6
CONTINUOUS
 10
5.6843418860808E-14
 20
5.6843418860808E-14
 11
4.00000000000006
 21
-7.99999999999994
  0
LINE
  8
画層0
  6
CONTINUOUS
 10
-1.99999999999994
 20
-3.99999999999994
 11
2.00000000000006
 21
-3.99999999999994
  0
TEXT
  8
画層0
 62
1
  6
CONTINUOUS
 62
1
 10
-2.37158060478816
 20
-7.65568391941542
 40
3
  1
6.3
  7
Font_0
 50
360
 72
1
 11
-0.121580604788164
 21
-4.65568391941542
 73
3
  0
ENDBLK
  0
BLOCK
  8
画層0
  2
仕上2-U
 70
    0
 10
0
 20
0
 30
0.0
  3
仕上2-U
  1

  0
LINE
  8
画層0
  6
CONTINUOUS
 10
-1.99999999999996
 20
3.99999999999994
 11
4.2632564145606E-14
 21
-5.6843418860808E-14
  0
LINE
  8
画層0
  6
CONTINUOUS
 10
4.2632564145606E-14
 20
-5.6843418860808E-14
 11
4.00000000000004
 21
7.99999999999994
  0
LINE
  8
画層0
  6
CONTINUOUS
 10
-1.99999999999996
 20
3.99999999999994
 11
2.00000000000004
 21
3.99999999999994
  0
LINE
  8
画層0
  6
CONTINUOUS
 10
4.00000000000004
 20
7.99999999999994
 11
10.0000000000001
 21
7.99999999999994
  0
TEXT
  8
画層0
 62
1
  6
CONTINUOUS
 62
1
 10
-2.54158060478817
 20
4.78568391941542
 40
3
  1
6.3
  7
Font_0
 72
1
 11
-0.291580604788166
 21
7.78568391941542
 73
3
  0
TEXT
  8
画層0
 62
1
  6
CONTINUOUS
 62
1
 10
6.47920969760614
 20
7.9999999999999
 40
4
  1
G
  7
Font_0
 72
1
 11
7.47920969760614
 21
11.9999999999999
 73
3
  0
ENDBLK
  0
BLOCK
  8
画層0
  2
仕上2-D
 70
    0
 10
0
 20
0
 30
0.0
  3
仕上2-D
  1

  0
LINE
  8
画層0
  6
CONTINUOUS
 10
-1.99999999999996
 20
-3.99999999999994
 11
4.2632564145606E-14
 21
5.6843418860808E-14
  0
LINE
  8
画層0
  6
CONTINUOUS
 10
4.2632564145606E-14
 20
5.6843418860808E-14
 11
4.00000000000004
 21
-7.99999999999994
  0
LINE
  8
画層0
  6
CONTINUOUS
 10
-1.99999999999996
 20
-3.99999999999994
 11
2.00000000000004
 21
-3.99999999999994
  0
LINE
  8
画層0
  6
CONTINUOUS
 10
4.00000000000004
 20
-7.99999999999994
 11
10.0000000000001
 21
-7.99999999999994
  0
TEXT
  8
画層0
 62
1
  6
CONTINUOUS
 62
1
 10
-2.54158060478817
 20
-7.78568391941542
 40
3
  1
6.3
  7
Font_0
 50
360
 72
1
 11
-0.291580604788166
 21
-4.78568391941542
 73
3
  0
TEXT
  8
画層0
 62
1
  6
CONTINUOUS
 62
1
 10
6.47920969760614
 20
-11.9999999999999
 40
4
  1
G
  7
Font_0
 50
360
 72
1
 11
7.47920969760614
 21
-7.99999999999994
 73
3
  0
ENDBLK
  0
ENDSEC
  0
SECTION
  2
ENTITIES
  0
CIRCLE
  8
画層3
  6
CONTINUOUS
 10
83.3393661647748
 20
256.444074359458
 40
1.25
  0
CIRCLE
  8
画層3
  6
CONTINUOUS
 10
83.3393661647748
 20
256.444074359458
 40
25
  0
LINE
  8
画層3
  6
DASHDOT
 10
53.3393661647748
 20
256.444074359458
 11
113.339366164775
 21
256.444074359458
  0
LINE
  8
画層3
  6
DASHDOT
 10
83.3393661647748
 20
226.444074359458
 11
83.3393661647748
 21
286.444074359458
  0
CIRCLE
  8
画層3
  6
CONTINUOUS
 10
138.339366164775
 20
256.444074359458
 40
1.25
  0
CIRCLE
  8
画層3
  6
CONTINUOUS
 10
138.339366164775
 20
256.444074359458
 40
25
  0
LINE
  8
画層3
  6
DASHDOT
 10
108.339366164775
 20
256.444074359458
 11
168.339366164775
 21
256.444074359458
  0
LINE
  8
画層3
  6
DASHDOT
 10
138.339366164775
 20
226.444074359458
 11
138.339366164775
 21
286.444074359458
  0
CIRCLE
  8
画層3
  6
CONTINUOUS
 10
188.339366164775
 20
256.444074359458
 40
20
  0
CIRCLE
  8
画層3
  6
CONTINUOUS
 10
188.339366164775
 20
256.444074359458
 40
1.25
  0
LINE
  8
画層3
  6
DASHDOT
 10
163.339366164775
 20
256.444074359458
 11
213.339366164775
 21
256.444074359458
  0
LINE
  8
画層3
  6
DASHDOT
 10
188.339366164775
 20
231.444074359458
 11
188.339366164775
 21
281.444074359458
  0
LINE
  8
画層3
  6
DASHDOT
 10
93.3393661647748
 20
208.381458902365
 11
113.339366164775
 21
208.381458902365
  0
LINE
  8
画層3
  6
DASHDOT
 10
103.339366164775
 20
198.381458902365
 11
103.339366164775
 21
218.381458902365
  0
CIRCLE
  8
画層3
  6
CONTINUOUS
 10
103.339366164775
 20
208.381458902365
 40
1.75
  0
LINE
  8
画層3
  6
DASHDOT
 10
53.3393661647748
 20
208.381458902365
 11
73.3393661647748
 21
208.381458902365
  0
LINE
  8
画層3
  6
DASHDOT
 10
63.3393661647748
 20
198.381458902365
 11
63.3393661647748
 21
218.381458902365
  0
CIRCLE
  8
画層3
  6
CONTINUOUS
 10
63.3393661647748
 20
208.381458902365
 40
1.75
  0
POLYLINE
  8
画層3
  6
CONTINUOUS
 10
0.0
 20
0.0
 30
0.0
 66
1
 70
     1
  0
VERTEX
  8
画層3
 10
58.3393661647748
  20
154.381458902365
  0
VERTEX
  8
画層3
 10
108.339366164775
  20
154.381458902365
  0
VERTEX
  8
画層3
 10
108.339366164775
  20
218.381458902365
  0
VERTEX
  8
画層3
 10
58.3393661647748
  20
218.381458902365
  0
SEQEND
100
AcDbEntity
  8
画層3
  0
LINE
  8
画層3
  6
DASHDOT
 10
54.8393661647748
 20
169.381458902365
 11
74.8393661647748
 21
169.381458902365
  0
LINE
  8
画層3
  6
DASHDOT
 10
64.8393661647748
 20
159.381458902365
 11
64.8393661647748
 21
179.381458902365
  0
CIRCLE
  8
画層3
  6
CONTINUOUS
 10
64.8393661647748
 20
169.381458902365
 40
1.75
  0
LINE
  8
画層3
  6
DASHDOT
 10
91.8393661647749
 20
169.381458902365
 11
111.839366164775
 21
169.381458902365
  0
LINE
  8
画層3
  6
DASHDOT
 10
101.839366164775
 20
159.381458902365
 11
101.839366164775
 21
179.381458902365
  0
CIRCLE
  8
画層3
  6
CONTINUOUS
 10
101.839366164775
 20
169.381458902365
 40
1.75
  0
LINE
  8
画層3
  6
DOT
 10
58.3393661647748
 20
198.381458902365
 11
108.339366164775
 21
198.381458902365
  0
LINE
  8
画層3
  6
DASHDOT
 10
83.3393661647748
 20
150.650741026128
 11
83.3393661647748
 21
222.237407692788
  0
LINE
  8
画層3
  6
DASHDOT
 10
74.8393661647748
 20
169.381458902365
 11
91.8393661647749
 21
169.381458902365
  0
LINE
  8
画層3
  6
CONTINUOUS
 10
118.339366164775
 20
111.444074359458
 11
118.339366164775
 21
101.444074359458
  0
LINE
  8
画層3
  6
CONTINUOUS
 10
118.339366164775
 20
101.444074359458
 11
128.339366164775
 21
101.444074359458
  0
LINE
  8
画層3
  6
CONTINUOUS
 10
128.339366164775
 20
101.444074359458
 11
128.339366164775
 21
81.4440743594581
  0
LINE
  8
画層3
  6
CONTINUOUS
 10
128.339366164775
 20
81.4440743594581
 11
58.3393661647748
 21
81.4440743594581
  0
LINE
  8
画層3
  6
CONTINUOUS
 10
58.3393661647748
 20
81.4440743594581
 11
58.339366164811
 21
111.444074359458
  0
LINE
  8
画層3
  6
CONTINUOUS
 10
58.3393661647748
 20
111.444074359458
 11
118.339366164775
 21
111.444074359458
  0
LINE
  8
画層3
  6
DASHDOT
 10
63.3393661647748
 20
111.444074359458
 11
63.3393661647748
 21
101.444074359458
  0
LINE
  8
画層3
  6
DASHDOT
 10
58.3393661647748
 20
106.444074359458
 11
68.3393661647748
 21
106.444074359458
  0
LINE
  8
画層3
  6
DASHDOT
 10
63.3393661647748
 20
91.4440743594581
 11
63.3393661647748
 21
81.4440743594581
  0
LINE
  8
画層3
  6
DASHDOT
 10
58.3393661647748
 20
86.4440743594581
 11
68.3393661647748
 21
86.4440743594581
  0
LINE
  8
画層3
  6
DASHDOT
 10
103.339366164775
 20
111.444074359458
 11
103.339366164775
 21
101.444074359458
  0
LINE
  8
画層3
  6
DASHDOT
 10
98.3393661647748
 20
106.444074359458
 11
108.339366164775
 21
106.444074359458
  0
LINE
  8
画層3
  6
DASHDOT
 10
103.339366164775
 20
91.4440743594581
 11
103.339366164775
 21
81.4440743594581
  0
LINE
  8
画層3
  6
DASHDOT
 10
98.3393661647747
 20
86.4440743594581
 11
108.339366164775
 21
86.4440743594581
  0
LINE
  8
画層3
  6
CONTINUOUS
 10
148.339366164775
 20
46.4440743594581
 11
148.339366164775
 21
56.4440743594581
  0
LINE
  8
画層3
  6
CONTINUOUS
 10
148.339366164775
 20
56.4440743594581
 11
158.339366164775
 21
56.4440743594581
  0
LINE
  8
画層3
  6
CONTINUOUS
 10
158.339366164775
 20
56.4440743594581
 11
158.339366164775
 21
76.4440743594581
  0
LINE
  8
画層3
  6
CONTINUOUS
 10
158.339366164775
 20
76.4440743594581
 11
58.3393661647748
 21
76.4440743594581
  0
LINE
  8
画層3
  6
CONTINUOUS
 10
58.3393661647748
 20
46.4440743594581
 11
148.339366164775
 21
46.4440743594581
  0
CIRCLE
  8
画層3
  6
CONTINUOUS
 10
113.339366164775
 20
66.4440743594581
 40
1.75
  0
CIRCLE
  8
画層3
  6
CONTINUOUS
 10
153.339366164775
 20
66.4440743594581
 40
1.75
  0
LINE
  8
画層3
  6
DASHDOT
 10
113.339366164775
 20
61.4440743594581
 11
113.339366164775
 21
71.4440743594581
  0
LINE
  8
画層3
  6
DASHDOT
 10
108.339366164775
 20
66.4440743594581
 11
118.339366164775
 21
66.4440743594581
  0
LINE
  8
画層3
  6
DASHDOT
 10
148.339366164775
 20
66.4440743594581
 11
158.339366164775
 21
66.4440743594581
  0
LINE
  8
画層3
  6
DASHDOT
 10
153.339366164775
 20
61.4440743594581
 11
153.339366164775
 21
71.4440743594581
  0
LINE
  8
画層3
  6
DASHDOT
 10
93.3393661647747
 20
46.4440743594581
 11
93.3393661647747
 21
56.4440743594581
  0
LINE
  8
画層3
  6
DASHDOT
 10
88.3393661647747
 20
51.4440743594581
 11
98.3393661647749
 21
51.4440743594581
  0
LINE
  8
画層3
  6
DASHDOT
 10
93.3393661647747
 20
66.4440743594581
 11
93.3393661647747
 21
76.4440743594581
  0
LINE
  8
画層3
  6
DASHDOT
 10
88.3393661647747
 20
71.4440743594581
 11
98.3393661647749
 21
71.4440743594581
  0
LINE
  8
画層3
  6
DASHDOT
 10
133.339366164775
 20
46.4440743594581
 11
133.339366164775
 21
56.4440743594581
  0
LINE
  8
画層3
  6
DASHDOT
 10
128.339366164775
 20
51.4440743594581
 11
138.339366164775
 21
51.4440743594581
  0
LINE
  8
画層3
  6
DASHDOT
 10
133.339366164775
 20
66.4440743594581
 11
133.339366164775
 21
76.4440743594581
  0
LINE
  8
画層3
  6
DASHDOT
 10
128.339366164775
 20
71.4440743594581
 11
138.339366164775
 21
71.4440743594581
  0
LINE
  8
画層3
  6
CONTINUOUS
 10
58.3393661647748
 20
46.4440743594581
 11
58.3393661647748
 21
76.4440743594581
  0
CIRCLE
  8
画層3
  6
CONTINUOUS
 10
63.3393661647748
 20
71.4440743594581
 40
1.75
  0
LINE
  8
画層3
  6
DASHDOT
 10
63.3393661647748
 20
66.4440743594581
 11
63.3393661647748
 21
76.4440743594581
  0
LINE
  8
画層3
  6
DASHDOT
 10
58.3393661647748
 20
71.4440743594581
 11
68.3393661647748
 21
71.4440743594581
  0
CIRCLE
  8
画層3
  6
CONTINUOUS
 10
63.3393661647748
 20
51.4440743594581
 40
1.75
  0
LINE
  8
画層3
  6
DASHDOT
 10
63.3393661647748
 20
46.4440743594581
 11
63.3393661647748
 21
56.4440743594581
  0
LINE
  8
画層3
  6
DASHDOT
 10
58.3393661647748
 20
51.4440743594581
 11
68.3393661647748
 21
51.4440743594581
  0
LINE
  8
画層3
  6
CONTINUOUS
 10
133.339366164775
 20
186.444074359458
 11
133.339366164775
 21
156.444074359458
  0
LINE
  8
画層3
  6
DOT
 10
143.339366164775
 20
156.444074359458
 11
143.339366164775
 21
186.444074359458
  0
LINE
  8
画層3
  6
DASHDOT
 10
138.339366164775
 20
151.444074359458
 11
138.339366164775
 21
191.444074359458
  0
LINE
  8
画層3
  6
DASHDOT
 10
128.339366164775
 20
161.444074359458
 11
148.339366164775
 21
161.444074359458
  0
LINE
  8
画層3
  6
DASHDOT
 10
128.339366164775
 20
181.444074359458
 11
148.339366164775
 21
181.444074359458
  0
CIRCLE
  8
画層3
  6
CONTINUOUS
 10
138.339366164775
 20
161.444074359458
 40
1.75
  0
CIRCLE
  8
画層3
  6
CONTINUOUS
 10
138.339366164775
 20
181.444074359458
 40
1.75
  0
LINE
  8
画層3
  6
CONTINUOUS
 10
143.339366164775
 20
186.444074359458
 11
133.339366164775
 21
186.444074359458
  0
LINE
  8
画層3
  6
CONTINUOUS
 10
133.339366164775
 20
156.444074359458
 11
143.339366164775
 21
156.444074359458
  0
LINE
  8
画層3
  6
CONTINUOUS
 10
133.339366164775
 20
156.444074359458
 11
133.339366164775
 21
186.444074359458
  0
CIRCLE
  8
画層3
  6
CONTINUOUS
 10
138.339366164775
 20
181.444074359458
 40
1.75
  0
LINE
  8
画層3
  6
DASHDOT
 10
138.339366164775
 20
176.444074359458
 11
138.339366164775
 21
186.444074359458
  0
LINE
  8
画層3
  6
DASHDOT
 10
133.339366164775
 20
181.444074359458
 11
143.339366164775
 21
181.444074359458
  0
CIRCLE
  8
画層3
  6
CONTINUOUS
 10
138.339366164775
 20
161.444074359458
 40
1.75
  0
LINE
  8
画層3
  6
DASHDOT
 10
138.339366164775
 20
156.444074359458
 11
138.339366164775
 21
166.444074359458
  0
LINE
  8
画層3
  6
DASHDOT
 10
133.339366164775
 20
161.444074359458
 11
143.339366164775
 21
161.444074359458
  0
LINE
  8
画層3
  6
CONTINUOUS
 10
143.339366164775
 20
156.444074359458
 11
143.339366164775
 21
186.444074359458
  0
LINE
  8
画層3
  6
CONTINUOUS
 10
118.339366164775
 20
116.444074359458
 11
118.339366164775
 21
126.444074359458
  0
LINE
  8
画層3
  6
CONTINUOUS
 10
118.339366164775
 20
126.444074359458
 11
128.339366164775
 21
126.444074359458
  0
LINE
  8
画層3
  6
CONTINUOUS
 10
128.339366164775
 20
126.444074359458
 11
128.339366164775
 21
146.444074359458
  0
LINE
  8
画層3
  6
CONTINUOUS
 10
128.339366164775
 20
146.444074359458
 11
58.3393661647748
 21
146.444074359458
  0
LINE
  8
画層3
  6
CONTINUOUS
 10
58.3393661647748
 20
146.444074359458
 11
58.339366164811
 21
116.444074359458
  0
LINE
  8
画層3
  6
CONTINUOUS
 10
58.3393661647748
 20
116.444074359458
 11
118.339366164775
 21
116.444074359458
  0
CIRCLE
  8
画層3
  6
CONTINUOUS
 10
83.3393661647748
 20
136.444074359458
 40
1.75
  0
CIRCLE
  8
画層3
  6
CONTINUOUS
 10
123.339366164775
 20
136.444074359458
 40
1.75
  0
LINE
  8
画層3
  6
DASHDOT
 10
83.3393661647748
 20
131.444074359458
 11
83.3393661647748
 21
141.444074359458
  0
LINE
  8
画層3
  6
DASHDOT
 10
78.3393661647748
 20
136.444074359458
 11
88.3393661647749
 21
136.444074359458
  0
LINE
  8
画層3
  6
DASHDOT
 10
118.339366164775
 20
136.444074359458
 11
128.339366164775
 21
136.444074359458
  0
LINE
  8
画層3
  6
DASHDOT
 10
123.339366164775
 20
131.444074359458
 11
123.339366164775
 21
141.444074359458
  0
LINE
  8
画層3
  6
DASHDOT
 10
63.3393661647748
 20
116.444074359458
 11
63.3393661647748
 21
126.444074359458
  0
LINE
  8
画層3
  6
DASHDOT
 10
58.3393661647748
 20
121.444074359458
 11
68.3393661647748
 21
121.444074359458
  0
LINE
  8
画層3
  6
DASHDOT
 10
63.3393661647748
 20
136.444074359458
 11
63.3393661647748
 21
146.444074359458
  0
LINE
  8
画層3
  6
DASHDOT
 10
58.3393661647748
 20
141.444074359458
 11
68.3393661647748
 21
141.444074359458
  0
LINE
  8
画層3
  6
DASHDOT
 10
103.339366164775
 20
116.444074359458
 11
103.339366164775
 21
126.444074359458
  0
LINE
  8
画層3
  6
DASHDOT
 10
98.3393661647747
 20
121.444074359458
 11
108.339366164775
 21
121.444074359458
  0
LINE
  8
画層3
  6
DASHDOT
 10
103.339366164775
 20
136.444074359458
 11
103.339366164775
 21
146.444074359458
  0
LINE
  8
画層3
  6
DASHDOT
 10
98.3393661647747
 20
141.444074359458
 11
108.339366164775
 21
141.444074359458
  0
LINE
  8
画層3
  6
CONTINUOUS
 10
148.339366164775
 20
41.4440743594581
 11
148.339366164775
 21
31.4440743594581
  0
LINE
  8
画層3
  6
CONTINUOUS
 10
148.339366164775
 20
31.4440743594581
 11
158.339366164775
 21
31.4440743594581
  0
LINE
  8
画層3
  6
CONTINUOUS
 10
158.339366164775
 20
31.4440743594581
 11
158.339366164775
 21
11.4440743594581
  0
LINE
  8
画層3
  6
CONTINUOUS
 10
158.339366164775
 20
11.4440743594581
 11
58.3393661647748
 21
11.4440743594581
  0
LINE
  8
画層3
  6
CONTINUOUS
 10
58.3393661647748
 20
41.4440743594581
 11
148.339366164775
 21
41.4440743594581
  0
LINE
  8
画層3
  6
DASHDOT
 10
93.3393661647747
 20
41.4440743594581
 11
93.3393661647747
 21
31.4440743594581
  0
LINE
  8
画層3
  6
DASHDOT
 10
88.3393661647747
 20
36.4440743594581
 11
98.3393661647749
 21
36.4440743594581
  0
LINE
  8
画層3
  6
DASHDOT
 10
93.3393661647747
 20
21.4440743594581
 11
93.3393661647747
 21
11.4440743594581
  0
LINE
  8
画層3
  6
DASHDOT
 10
88.3393661647747
 20
16.4440743594581
 11
98.3393661647749
 21
16.4440743594581
  0
LINE
  8
画層3
  6
DASHDOT
 10
133.339366164775
 20
41.4440743594581
 11
133.339366164775
 21
31.4440743594581
  0
LINE
  8
画層3
  6
DASHDOT
 10
128.339366164775
 20
36.4440743594581
 11
138.339366164775
 21
36.4440743594581
  0
LINE
  8
画層3
  6
DASHDOT
 10
133.339366164775
 20
21.4440743594581
 11
133.339366164775
 21
11.4440743594581
  0
LINE
  8
画層3
  6
DASHDOT
 10
128.339366164775
 20
16.4440743594581
 11
138.339366164775
 21
16.4440743594581
  0
LINE
  8
画層3
  6
CONTINUOUS
 10
58.3393661647748
 20
41.4440743594581
 11
58.3393661647748
 21
11.4440743594581
  0
CIRCLE
  8
画層3
  6
CONTINUOUS
 10
63.3393661647748
 20
16.4440743594581
 40
1.75
  0
LINE
  8
画層3
  6
DASHDOT
 10
63.3393661647748
 20
21.4440743594581
 11
63.3393661647748
 21
11.4440743594581
  0
LINE
  8
画層3
  6
DASHDOT
 10
58.3393661647748
 20
16.4440743594581
 11
68.3393661647748
 21
16.4440743594581
  0
CIRCLE
  8
画層3
  6
CONTINUOUS
 10
63.3393661647748
 20
36.4440743594581
 40
1.75
  0
LINE
  8
画層3
  6
DASHDOT
 10
63.3393661647747
 20
41.4440743594581
 11
63.3393661647748
 21
31.4440743594581
  0
LINE
  8
画層3
  6
DASHDOT
 10
58.3393661647748
 20
36.4440743594581
 11
68.3393661647748
 21
36.4440743594581
  0
CIRCLE
  8
画層3
  6
CONTINUOUS
 10
83.3393661647748
 20
162.881458902365
 40
3
  0
LINE
  8
画層3
  6
DASHDOT
 10
83.3393661647748
 20
162.881458902365
 11
90.6841141550926
 21
162.881458902365
  0
LINE
  8
画層3
  6
DASHDOT
 10
83.3393661647749
 20
162.881458902365
 11
76.4612689791841
 21
162.881458902365
  0
CIRCLE
  8
画層3
  6
CONTINUOUS
 10
103.339366164775
 20
141.444074359458
 40
1
  0
CIRCLE
  8
画層3
  6
CONTINUOUS
 10
63.3393661647748
 20
141.444074359458
 40
1
  0
CIRCLE
  8
画層3
  6
CONTINUOUS
 10
63.3393661647748
 20
121.444074359458
 40
1
  0
CIRCLE
  8
画層3
  6
CONTINUOUS
 10
103.339366164775
 20
121.444074359458
 40
1
  0
CIRCLE
  8
画層3
  6
CONTINUOUS
 10
103.339366164775
 20
86.4440743594581
 40
1
  0
CIRCLE
  8
画層3
  6
CONTINUOUS
 10
103.339366164775
 20
106.444074359458
 40
1
  0
CIRCLE
  8
画層3
  6
CONTINUOUS
 10
63.3393661647748
 20
86.4440743594581
 40
1
  0
CIRCLE
  8
画層3
  6
CONTINUOUS
 10
63.3393661647748
 20
106.444074359458
 40
1
  0
CIRCLE
  8
画層3
  6
CONTINUOUS
 10
133.339366164775
 20
71.4440743594581
 40
1
  0
CIRCLE
  8
画層3
  6
CONTINUOUS
 10
133.339366164775
 20
51.4440743594581
 40
1
  0
CIRCLE
  8
画層3
  6
CONTINUOUS
 10
93.3393661647748
 20
71.4440743594581
 40
1
  0
CIRCLE
  8
画層3
  6
CONTINUOUS
 10
93.3393661647748
 20
51.4440743594581
 40
1
  0
CIRCLE
  8
画層3
  6
CONTINUOUS
 10
133.339366164775
 20
16.4440743594581
 40
1
  0
CIRCLE
  8
画層3
  6
CONTINUOUS
 10
133.339366164775
 20
36.4440743594581
 40
1
  0
CIRCLE
  8
画層3
  6
CONTINUOUS
 10
93.3393661647748
 20
36.4440743594581
 40
1
  0
CIRCLE
  8
画層3
  6
CONTINUOUS
 10
93.3393661647748
 20
16.4440743594581
 40
1
  0
TEXT
  8
画層3
 62
7
  6
CONTINUOUS
 62
7
 10
118.932699498108
 20
201.276364748006
 40
4
  1
折り曲げ線
  7
Font_0
 11
118.932699498108
 21
203.276364748006
 73
2
  0
LINE
  8
画層3
  6
CONTINUOUS
 10
118.759366164775
 20
203.449698081339
 11
103.339366164775
 21
198.381458902365
  0
POLYLINE
  8
画層3
  6
CONTINUOUS
 10
0.0
 20
0.0
 30
0.0
 66
1
 70
     1
  0
VERTEX
  8
画層3
 10
103.339366164775
  20
198.381458902365
  0
VERTEX
  8
画層3
 10
105.849812809356
  20
200.023913664212
  0
VERTEX
  8
画層3
 10
106.334704114751
  20
198.5486431284
  0
SEQEND
100
AcDbEntity
  8
画層3
  0
ENDSEC
  0
EOF
